Song: Kundiman

Band: Silent Sanctuary

Rating: -1 +2 Views: 274

SONG:kundiman
BAND:silent santuary
TABBED  BY:jeffrey de quilla
EMAIL:killme_twice@yahoo.com
---------------------------------------------------------
ok!marami ng naghahanap ng intro ng kanta n2 kaya eto nah!
enjoy!!!




    

normal tunning
INTRO
e|------------------------------------------|
b|---1-------3-----------5------5---8-------|
g|--0----------5-------5------5-------5-----|
d|-3---3/5-5-----5/7-7------7---------------|
a|------------------------------------------|
e|------------------------------------------|

e|------------------------------------------|
b|---1-------3------------5--8~-------------|
g|--0----------5--------5-------------------|
d|-3---3/5-5-----5/7-7----------------------|
a|------------------------------------------|
e|------------------------------------------|




    

VIOLINE PART A

e|----------------------------------------------|
b|---12-13---12-13---12-13---12-13---12-13------|
g|-12------12------12------12------12------12~--|
d|----------------------------------------------|
a|----------------------------------------------|
e|----------------------------------------------|
VIOLINE PART B
e|---------------------------------------|
b|--5-6--5-6--5-6--5-6--5-6--------------|
g|-5----5----5----5----5----5~-----------|play this everytime
d|---------------------------------------|you play part A
a|---------------------------------------|but a little faster
e|---------------------------------------|tempo!


--------------------------------------------------------------|
ok yan lan muna...yaan nyo bubuoin ko yan pag sinipag ako...  
hehehe...irate nyo poh huh? para sipagin pa ko gumawa ng tabs!

para sa inspirasyon koh!! chellec",)

Help Rate This Tab by Voting Up or Down

Vote Up Vote Down
Rating: -1 +2

Other Songs Like This

x

Copyright © 2015