Song: Hong Kong Garden

Band: Siouxsie And The Banshees

Rating: -1 +1 Views: 149

----------------------------------------------------------------------------
		   HONG KONG GARDEN - Siouxsie and The Banshees
----------------------------------------------------------------------------

Tabbed by: illy93
Tuning: Standard



    


Intro / Chorus Riff:

First little instrument adapted for guitar (sounds like a xylophone or sumfin 2 me)~
e|-------------------------------------------------|
B|--12-15151515-17-15-12--10-13131313-15-13-12-10--|
G|-------------------------------------------------|
D|-------------------------------------------------|
A|-------------------------------------------------|
E|-------------------------------------------------|



    
                                                
                                              
Guitar~ 
e|--121212-151515-12-17-15-12121212\101010-131313-10-15-13-12-1010--|
B|--121212-151515-12-17-15-12121212\101010-131313-10-15-13-12-1010--|
G|------------------------------------------------------------------|
D|------------------------------------------------------------------|
A|------------------------------------------------------------------|
E|------------------------------------------------------------------|

Verses:
    G      F         G      F

e|-----------------|--------------8-------8--------|
B|--12-----10------|-12-----10----10-1010-10-1010--|
G|--12-----10------|-12-----10----10-1010-10-1010--|
D|--12-----10------|-12-----10----10-1010-10-1010--|
A|--10-x24-8-x24---|-10-x24-8-x12-8--8-8--8--8-8---|
E|-----------------|-------------------------------|
                    slight variation for chords at end of v2

Post Chorus:

e|--121212121212-141414141414-121212121212-121212121212-121212121212-|
B|--131313131313-151515151515-121212121212-121212121212-131313131313-|
G|--121212121212-141414141414-121212121212-121212121212-121212121212-|
D|-------------------------------------------------------------------|
A|-------------------------------------------------------------------|
E|-------------------------------------------------------------------|

e|-141414141414-1212151512-121212121212-141414141414-1212151512-1010-|
B|-151515151515-1212151512-131313131313-151515151515-1212151512-1010-|
G|-141414141414-1212121212-121212121212-141414141414-1212121212------|
D|-------------------------------------------------------------------|
A|-------------------------------------------------------------------|
E|-------------------------------------------------------------------|

e|-131313-10-15-13-12-10--|
B|-131313-10-15-13-12-10--|
G|------------------------|
D|------------------------|
A|------------------------|
E|------------------------|

Outro:

e|------------------------------8-------8------------10------10------|
B|--12-----10-----12-----10-----10-1010-10-10-12-----12-1212-12-1212-|
G|--12-----10-----12-----10-----10-1010-10-10-12-----12-1212-12-1212-|
D|--12-----10-----12-----10-----10-1010-10-10-12-----12-1212-12-1212-|
A|--10-x24-8--x24-10-x24-8--x12-8--8-8--8--8--10-x12-10-1010-10-1010-|
E|-------------------------------------------------------------------|

e|--------8-------8---------------1313131313-------------1111111111----|
B|-10-----10-1010-10-1010--12-----131313131312----10-----111111111110--|
G|-10-----10-1010-10-1010--12-----121212121212----10-----101010101010--|
D|-10-----10-1010-10-1010--12-----121212121212----10-----101010101010--|
A|-8--x12-8--8-8--8--8-8---10-x12-101010101010-x2-8--x12-8-8-8-8-8-8-x2|
E|---------------------------------------------------------------------|

e|--------1313131313---------8-------8-------1313131313------|
B|-12-----131313131312-10----10-1010-10-1010-131313131312----|
G|-12-----121212121212-10----10-1010-10-1010-121212121212----|
D|-12-----121212121212-10----10-1010-10-1010-121212121212----|
A|-10-x12-101010101010-8--x6-8--8-8--8--8-8--101010101010-x4-|
E|-----------------------------------------------------------|

e|-11111111111-----1313131313------8----|
B|-111111111110----131313131312----10---|
G|-101010101010----121212121212----10---|
D|-101010101010----121212121212----10---|
A|-8-8-8-8-8-8--x4-101010101010-x4-8----|
E|--------------------------------------|

STRUCTURE:
Intro = ('xylophone' x1 then guitar comes in and both instruments play another 3 times)
Verse = chords x 4
Chorus = riff x 3
Post Chorus
Verse = chords x 4
Chorus = riff x 2
Outro

KEY:
 \ = slide down

============================================================================

Close panel

Help Rate This Tab by Voting Up or Down

Vote Up Vote Down
Rating: -1 +1

Other Songs Like This

x

Copyright © 2017