Song: Come Together

Band: Sisters Of Mercy

Rating: -1 +1 Views: 179

Intro

e|-----|
B|-----|
G|-12\-|
D|-----|
A|-----|
E|-----|



    

e|------------------------------|
B|------------------------------|
G|-0---7------0-5-7/8-5------7\-|
D|------------------------------|
A|------------------------------|
E|------------------------------|

e|------------------------------|
B|------------------------------|
G|-0---7b8b7--0-5-7/8-5---------|
D|------------------------------|
A|------------------------------|
E|------------------------------|

Verse



    

e|------------------------------|
B|------------------------------|
G|-0---7b8b7--0-5-7/8-5---------|
D|------------------------------|
A|------------------------------|
E|------------------------------|

e|------------------------------|
B|------------------------------|
G|-0---7b8b7--0-5-7/8-5------5/-|
D|------------------------------|
A|------------------------------|
E|------------------------------|

e|------------------------------|
B|------------------------------|
G|-10---10h12b13b12\5--------5/-|
D|------------------------------|
A|------------------------------|
E|------------------------------|

e|------------------------------|
B|------------------------------|
G|-10---10h12b13b12-------------|
D|------------------------------|
A|------------------------------|
E|------------------------------|

Chorus

e|----------------------------------------------------------|
B|-15--15-x-x-x-15--15-x-x-x-15--15-x-x-x-16-16-16-15-15-15-|
G|-14--14-x-x-x-14--14-x-x-x-14--14-x-x-x-15-15-15-14-14-14-|
D|-12--12-x-x-x-12--12-x-x-x-12--12-x-x-x-13-13-13-12-12-12-|
A|----------------------------------------------------------|
E|----------------------------------------------------------|

e|---------------------------------------------------------------|
B|-13--13-x-x-x-13--13-x-x-x-15/16-16-16-16-16-16\15-15-15-15-15-|
G|-12--12-x-x-x-12--12-x-x-x-14/15-15-15-15-15-15\14-14-14-14-14-|
D|-10--10-x-x-x-10--10-x-x-x-10/13-13-13-13-13-13\10-10-10-10-10-|
A|---------------------------------------------------------------|
E|---------------------------------------------------------------|

e|----------------------------------------------------------|
B|-15--15-x-x-x-15--15-x-x-x-15--15-x-x-x-16-16-16-15-15-15-|
G|-14--14-x-x-x-14--14-x-x-x-14--14-x-x-x-15-15-15-14-14-14-|
D|-12--12-x-x-x-12--12-x-x-x-12--12-x-x-x-13-13-13-12-12-12-|
A|----------------------------------------------------------|
E|----------------------------------------------------------|

e|---------------------------13-13-13-13-13-13-13-------13\-|
B|-13--13-x-x-x-13--13-x-x-x-13-13-13-13-13-13-13-------13\-|
G|-12--12-x-x-x-12--12-x-x-x-10-10-10-10-10-10-10-------10\-|
D|-10--10-x-x-x-10--10-x-x-x-10-10-10-10-10-10-10-------10\-|
A|----------------------------------------------------------|
E|----------------------------------------------------------|

Close panel

Help Rate This Tab by Voting Up or Down

Vote Up Vote Down
Rating: -1 +1

Other Songs Like This

x

Copyright © 2018