Song: Miles Away

Band: Slapshock
Composed By: Bobby Bare, Curley Williams, Hedy West

Rating: -1 +1 Views: 45



    

																				Slapshock - Miles Away 
Tuning :drop D

Note: version ko po eto akostik,saka Drop D tuning  inde ko alam kung anung 
      chords to base pandinig ko, ahehe sana mgustuhan nyo ! 
Chords for verses 
          D             F              C

e|---------------------------------------------------------------------------|
B|--------8-------------4---------------6------------------------------------|
G|--------7-------------3---------------5------------------------------------|
D|--------5-------------1---------------3------------------------------------|
A|--------5-------------1---------------3------------------------------------|
D|--------5-------------1---------------3------------------------------------|
Chords for Chorus 
          Asus4               B                 G            A   
e|--------5------------------7-----------------3-----------------------------|
B|--------5------------------7-----------------3-----------------------------|
G|--------5------------------7-h-10------------3-----------5-----------------|
D|--------7-h-9--------------9-----------------5-----------5-----------------|
A|--------5------------------7-----------------3-----------5-----------------|
D|--------5------------------7-----------------3-----------5-----------------|
Intro : Struming 
        D- F- C- (2x)

Verse 1: make it like struming like a power chords (mabilis)



    
  
D              F                C      
i lost my way through this days
looking for that same old says 
ill break the silence of your face 
to get closer everyday 

Refrain: dito mabagal

D           F       C

now I turn around again 
looking for a friend 
i see your face again, and again 

Chorus:
Asus4                   B            
feel me today, cause youre million miles away
G                 A 
and I know, that you know 
Asus4                    B
hear me today, cause youre million miles away 
G                 A

and I know, that you know 

placking Down strokes :D -F- C 

Verse :2

ive been calling out your name 
every minute its just the same 
cold and hungry shout to me 
from this battle that I cant see 

Repeat: 
(Refrain, Chorus)

D C F


fly down fly away 
go down and fly away 
fly down fly away 
glide away, glide away 

fly down fly away 
go down and fly away 
fly down fly away 
glide away, glide away

View Albums that This Song Appears On...

  • Novena

    Genre: Pop/Rock Label: EMI Song Duration on Album: 4:03 Album Duration: 49:43

    Release Date: 2004

  • Recollection

    Genre: Pop/Rock Label: EMI Music Distribution Song Duration on Album: 4:05 Album Duration: 01:10:06

    Release Date: 2007

  • Miles Away

    Label: EMI Music Distribution Song Duration on Album: 3:58

Close panel

Help Rate This Tab by Voting Up or Down

Vote Up Vote Down
Rating: -1 +1

Other Songs Like This

x

Copyright © 2019