Song: Basher Bass

Band: Slightly Stoopid
Composed By: Slightly Stoopid

Rating: -0 +0 Views: 81



    

																				Song: Basher
Band: Slightly Stoopid
Album: Closer To The Sun
Tabbed by Ryan VanPatten(futrebartender5@netscape.net)

Few notes in the beginning
--------------|
--------------|
----------5---|
-----4-5------|




    

PART A: 00:00 and (01:17)
----------------------------------------------------------|
----------------------------------------------------------|
-7-777---------7-777-9-7------5-555-------5-555-------5---|
-------7h9-7-------------9-7--------5h7-5-------5h7-5-----|

PART B: Faster Part (00:53) and (02:05)
-----------------------------|
-----------------------------|
-77-9-7------5---------------|
--------9-7-----5h7-5-5h7-5--|

View Albums that This Song Appears On...

  • Closer to the Sun

    Genre: Pop/Rock Label: Imusic / Reincarnate Music Song Duration on Album: 2:31 Album Duration: 01:00:32

    Release Date: April 19, 2005

    Moods: Nihilistic, Quirky, Visceral, Acerbic, Aggressive, Boisterous, Dramatic, Fierce, Fiery, Hostile, Intense, Snide, Street-Smart, Stylish, Uncompromising, Volatile, Confrontational, Energetic, Harsh, Manic, Rollicking, Tense/Anxious

    Styles: Alternative/Indie Rock, Punk Revival, Punk-Pop, Ska-Punk, Third Wave Ska Revival

    Themes: Guys Night Out, Partying, Sports

  • Winter Tour '05-'06

    Genre: Pop/Rock Label: Shout! Factory / Shout! Records Song Duration on Album: 3:52 Album Duration: 01:23:11

    Release Date: June 27, 2006

    Moods: Gentle, Amiable/Good-Natured, Knotty, Rollicking, Angst-Ridden, Cathartic, Earnest, Reflective, Self-Conscious

    Styles: Alternative Pop/Rock, Alternative/Indie Rock, Reggae-Pop, Ska-Punk, Third Wave Ska Revival, Punk-Pop, Punk/New Wave, Ska Revival, Jam Bands

    Themes: Hanging Out, Picnic, Summer, Relaxation, The Great Outdoors, Pool Party

Close panel

Help Rate This Tab by Voting Up or Down

Vote Up Vote Down
Rating: -0 +0

Other Songs Like This

x

Copyright © 2017