Song: Sing A Simple Song Bass

Band: Sly And The Family Stone

Rating: -0 +0 Views: 208



    

																				Sing A Simple Song - Sly And The Family Stone
Album: Stand!
Tabbed by: Ruben Andersen

Intro

G|------------------------------------------------------------------------------------------------|
D|------------------------------------------------------------------------------------------------|
A|------------------------------------------------------------------------------------------------|
E|----12-12-12-12---12-12-12-12---12-12-12-12-12-12-12-12---12-12-12-12-12-12-12-12---------------|



    


Main Riff 

G|------------------------------------9-9--7-9-9--------------------------------------------------|
D|------------5---------------------9-------------------------------------------------------------|
A|----7-7-5-7---5-7-7-----------------------------------------------------------------------------|
E|---------------------0-3-5---0-0----------------------------------------------------------------|

x 10


Bridge

G|------------------------------------------------------------------------------------------------|
D|------5-7------------------------7-9------------------------10-12-------------------------------|
A|------------------------------------------------------------------------------------------------|
E|----5----5-5-5-5--5-5--5-5-5-5--7---7-7-7-7--7-7--7-7-7-7--10---10-10-10-10--10-10--10-10-10-10-|

G|-----------------------7-9-7--9-7--9-7

Close panel

Help Rate This Tab by Voting Up or Down

Vote Up Vote Down
Rating: -0 +0

Other Songs Like This

x

Copyright © 2017