Song: Slaves Bulldozers

Band: Soundgarden
Composed By: Ben Shepherd, Chris Cornell

Rating: -1 +1 Views: 66



    

																				-------------------------------------------------------------------------
			     Slaves & Bulldozers - Soundgarden
-------------------------------------------------------------------------
Tabbed by: Marko Klancisar
Email: marko.klancisar@gmail.com

Tuning: Drop D

Intro: Blow on guitar strings



    


e|---------------------------------------------------------------15bend-|
B|--------15bend------------------------------15bend--------------------|
G|------0-----------------------------------0---------------------------| 2x
D|--------------16-15-16-15---12--------------------16-15-16-15---------|
A|----------------------------------------------------------------------|
D|-0-0---------------------------------0-0------------------------------|



e|--------------------------------------------------17-19-17-19---------|
B|----------------------------------------------------------------------|
G|------0-15bend----------------------------0-17bend--------------------|
D|--------------16-15---12----------------------------------------------|
A|----------------------------------------------------------------------|
D|-0-0---------------------------------0-0------------------------------|



e|----------------------------15----------------------------------------|
B|----------------------------------------------------------------------|
G|------0-17------------------------------------------------------------|
D|--------------16-15-16-15-----------------15-14---16-15-16-15---12----|
A|----------------------------------------------------------------------|
D|-0-0---------------------------------0-0------------------------------|



e|----------------------------------------------------------------------|
B|----------------------------------------------------------------------|
G|----------------------------------------------------------------------|11x
D|----------------------------------------------------------------------|
A|----------------------------------------------------------------------|
D|-0-0

View Just Lyrics...

Every word I said is what I mean
Every word I said is what I mean
Everything I gave is what I need
Virgin eyes and dirty looks
On what I have and why I took
Counting all the hands I shook

Now I know why you've been shaking
Now I know why you've been shaking
Now I know why you've been shaking
Now I know why you've been shaking

So bleed your heart out
There's no more rides for free
Bleed your heart out
I said what's in it for me, what's in it for me

Everything I've held is what I've freed
Everything I've held is what I've freed
Everything I've shown is what I feel
Buying lies and stealing jokes
And laughing every time I choke
Biding all the time you took

Now I know why you've been taken
Now I know why you've been taken
Now I know why you've been taken
Now I know why you've been taken

So bleed your heart out
There's no more rides for free
Bleed your heart out
I said what's in it for me, what's in it for me
What's in it for me, what's in it for me

Every word I said is what I mean
Everything I gave is what I need
Everything I've held is what I've freed
Everything I've shown is what I feel

Virgin eyes and dirty looks
On what I have and why I took
Counting all the hands I shook
Now I know why you've been shaking

Buying lies and stealing jokes
And laughing every time I choke
Biding all the time you took
Now I know why you've been taken

Now I know why you've been taken
Now I know why you've been taken
Now I know why you've been taken
Now I know why you've been shaking
Now I know why you've been taken

Now, now, now, now

View Albums that This Song Appears On...

  • Badmotorfinger

    Genre: Pop/Rock Label: UMC (Universal Catalogue) Song Duration on Album: 6:56 Album Duration: 58:47

    Release Date: October 8, 1991

    Moods: Bitter, Fierce, Menacing, Paranoid, Aggressive, Cathartic, Earnest, Literate, Tense/Anxious, Urgent, Volatile, Cerebral, Gloomy, Harsh, Hostile, Intense, Acerbic, Angst-Ridden, Confrontational, Fiery, Organic

    Styles: Alternative Metal, Alternative Pop/Rock, Alternative/Indie Rock, Grunge, Heavy Metal

    Themes: Guys Night Out, Introspection, Reflection

  • Badmotorfinger/SOMMS (Satanoscillatemymetallicsonatas)

    Genre: Pop/Rock Label: A&M Song Duration on Album: 6:55 Album Duration: 01:22:54

    Release Date: June 23, 1992

    Styles: Alternative Metal, Alternative Pop/Rock, Alternative/Indie Rock, Grunge, Heavy Metal

  • Telephantasm

    Genre: Pop/Rock Label: Universal Distribution Song Duration on Album: 6:57 Album Duration: 59:40

    Release Date: September 28, 2010

    Moods: Tense/Anxious, Angst-Ridden, Gloomy, Literate, Self-Conscious, Organic

    Styles: Alternative Metal, Heavy Metal, Alternative Pop/Rock, Alternative/Indie Rock, Grunge

Close panel

Help Rate This Tab by Voting Up or Down

Vote Up Vote Down
Rating: -1 +1

Other Songs Like This

x

Copyright © 2019