Song: Nakapagtataka

Band: Sponge Cola

Rating: -1 +0 Views: 55

Title       : Nakapagtataka
Artist      : Sponge cola

Ear tabber  : ROGEM S. BATTUNG
Address     : Palawan St. Sampaloc Manila
E-mail add 1: guitarizta_rogem@yahoo.com
Contact no  : 09187229082



    

School      : EARIST B.S. APPLIED PHYSICS-1
Time Elapsed: 11.45 PM - 12.03 PM
Date        : October 8, 2006

ROGEM - > So e2 na ung nakapagtataka tab actually this is a revival song by sponge cola 
the band ("APO") from the album ( kami nAPO muna )
Ginawa nila 2ng song na 2 na madyo may pagka rock slight lang binabaan din nila un g 
enjoy dis one !!!

ROGEM - > Dedicated dis song to All C.A.S student Eespecially BSAP of EARIST
          Pati sa mga n rerequest ng song na2 and my Classm8.



    

Tuning: E A D G B e

VERSE 1

ROGEM -> strumming yan 2loy 2loy lang

    E         A9        E        G#       C#m7      E

e|---0---------0--------0--------4--------4---------0-------------|
B|---0---------0--------0--------4--------5---------0-------------|
G|---1---------2--------1--------5--------4---------1-------------|
D|---2---------2--------2--------6--------6---------2-------------|
A|---2---------0--------2--------6--------4---------2-------------|
E|---0---------x--------0--------4--------x---------0-------------|
     Walang  tigil ang gulo sa   aking   pagiisip,

     A9       B7        G#       E

e|---0---------2--------4--------0--------------------------------|
B|---0---------4--------4--------0--------------------------------|
G|---2---------2--------5--------1--------------------------------|
D|---2---------4--------6--------2--------------------------------|
A|---0---------2--------6--------2--------------------------------|
E|---x---------x--------4--------0--------------------------------|
  Mula ng tayo nagpasyang  mag  hiwalay

     A9        B7 	G#     	    C#m7     F#m     B7sus-B7
e|---0---------2--------4-----------4--------2--------2-2---------|
B|---0---------4--------4-----------5--------2--------5s4---------|
G|---2---------4--------5-----------4--------2--------2-2---------|
D|---2---------4--------6-----------6--------4--------4-4---------|
A|---0---------2--------6-----------4--------4--------2-2---------|
E|---x---------x--------4-----------x--------2--------x-x---------|
Nagpaalam pagka't hindi tayo bagay, Nakapagtataka,  (woh,)

     E        A9       E        G#       C#m7      E

e|---0---------0--------0--------4--------4---------0-------------|
B|---0---------0--------0--------4--------5---------0-------------|
G|---1---------2--------1--------5--------4---------1-------------|
D|---2---------2--------2--------6--------6---------2-------------|
A|---2---------0--------2--------6--------4---------2-------------|
E|---0---------x--------0--------4--------x---------0-------------|
    Kung bakit ganito   Ang   Aking    Kapalaran

     A9        B        G#       E

e|---0---------2--------4--------0--------------------------------|
B|---0---------4--------4--------0--------------------------------|
G|---2---------4--------5--------1--------------------------------|
D|---2---------4--------6--------2--------------------------------|
A|---0---------2--------6--------2--------------------------------|
E|---x---------x--------4--------0--------------------------------|
    'Di ba't ilang ulit ka nang  nag paalam

     A9        B7 	G#     	    C#m7     F#m     B7sus-B7
e|---0---------2--------4-----------4--------2--------2-2---------|
B|---0---------4--------4-----------5--------2--------5s4---------|
G|---2---------4--------5-----------4--------2--------4-4---------|
D|---2---------4--------6-----------6--------4--------4-4---------|
A|---0---------2--------6-----------4--------4--------2-2---------|
E|---x---------x--------4-----------x--------2--------x-x---------|
bawat paalam ay puno ng iyakan?  Nakapagtataka,  Nakapagtataka


CHORUS

     G        Bm7      Em        C   Am      B7sus-B7
e|---3---------2--------0--------0---0--------2-2----|
B|---3---------3--------0--------1---1--------5s4----|
G|---0---------2--------0--------2---2--------2-2----|Reapeat
D|---0---------4--------2--------0---2--------4-4----|Chorus
A|---2---------2--------2--------3---0--------2-4----|2x
E|---3---------x--------0--------x---x--------x-x----|


Hindi ka ba napapagod,
O' di kaya'y nagsasawa,
Sa ating mga tampuhang
Walang hanggang katapusan?
Napahid na'ng mga luha,
Damdamin at puso'y tigang,
Wala ng maibubuga,
Wala na kong maramdaman.

VERSE 2

     E        A9        E        G#       C#m7      E

e|---0---------0--------0--------4--------4---------0-------------|
B|---0---------0--------0--------4--------5---------0-------------|
G|---1---------2--------1--------5--------4---------1-------------|
D|---2---------2--------2--------6--------6---------2-------------|
A|---2---------0--------2--------6--------4---------2-------------|
E|---0---------x--------0--------4--------x---------0-------------|
    Walang tigil ang ulan At na-----san ka araw?

     A9        B7       G#       E

e|---0---------2--------4--------0--------------------------------|
B|---0---------4--------4--------0--------------------------------|
G|---2---------2--------5--------1--------------------------------|
D|---2---------4--------6--------2--------------------------------|
A|---0---------2--------6--------2--------------------------------|
E|---x---------x--------4--------0--------------------------------|
    Napa'no na'ng pag-ibig sa isa't isa

    A9        B7 	G#     	    C#m7     F#m     B7sus-B7
e|---0---------2--------4-----------4--------2--------2-2---------|
B|---0---------4--------4-----------5--------2--------5s4---------|
G|---2---------4--------5-----------4--------2--------2-2---------|
D|---2---------4--------6-----------6--------4--------4-4---------|
A|---0---------2--------6-----------4--------4--------2-2---------|
E|---x---------x--------4-----------x--------2--------x-x---------|
Wala na bang nanatiling pag-asa?   Nakapagtataka, san na napunta?

CHORUS

     G        Bm7      Em        C   Am      B7sus-B7
e|---3---------2--------0--------0---0--------2-2----|
B|---3---------3--------0--------1---1--------5s4----|
G|---0---------2--------0--------2---2--------2-2----|Reapeat
D|---0---------4--------2--------0---2--------4-4----|Chorus
A|---2---------2--------2--------3---0--------2-4----|2x
E|---3---------x--------0--------x---x--------x-x----|
Hindi ka ba napapagod,
O' di kaya'y nagsasawa,
Sa ating mga tampuhang
Walang hanggang katapusan?
Napahid na'ng mga luha,
Damdamin at puso'y tigang,
Wala ng maibubuga,
Wala na kong maramdaman.

ADLIB

ROGEM -> chorus chords ung gagamitin d2 try nyo muna
	 sabayan sa audio player para makuha nyo>

eto try nio po...sa adlib...
e|---------2-3--5-5---7--5-5--10---10-8-7-5-3---5--2-3-2---------2-3-5-7--10-10|
B|-----3h5------------------------------------------------0-3-5----------------|
G|-----------------------------------------------------------------------------|
D|-----------------------------------------------------------------------------|
A|-----------------------------------------------------------------------------|
E|-----------------------------------------------------------------------------|

e|--10--10h12-15h17--19-19-19-19-19-17-15--19--|
B|---------------------------------------------|
G|---------------------------------------------|
D|---------------------------------------------|
A|---------------------------------------------|
E|---------------------------------------------|


CHORUS

     G        Bm7      Em        C   Am      B7sus-B7
e|---3---------2--------0--------0---0--------2-2----|
B|---3---------3--------0--------1---1--------5s4----|
G|---0---------2--------0--------2---2--------2-2----|
D|---0---------4--------2--------0---2--------4-4----|
A|---2---------2--------2--------3---0--------2-4----|
E|---3---------x--------0--------x---x--------x-x----|

Napahid na'ng mga luha,
Damdamin at puso'y tigang,
Wala ng maibubuga,
Wala na kong maramdaman.

ROGEM -> DO dis after the Chorus

e|-18-18-18-18-18---115-14-15--------------------|
B|-----------------------------------------------|
G|-----------------------------------------------|
D|-----------------------------------------------|
A|-----------------------------------------------|
E|-----------------------------------------------|

     Am        D        G        Em
e|---0---------2--------3--------0------------------------------|
B|---1---------3--------3--------0------------------------------|
G|---2---------2--------0--------0------------------------------|
D|---2---------0--------0--------2------------------------------|
A|---0---------x--------2--------2------------------------------|
E|---x---------x--------3--------0------------------------------|


Kung tunay tayong nagmamahalan

Ba't di tayo magkasunduan?

	Am     D      G

   (wohh !)


Time Elapsed: 11.45 PM - 12.03 PM

If you have suggestion and comments txt me Rogem ( 09187229082 )
Invite me in friendster na rin Guitarizta_rogem@yahoo.com

Close panel

Help Rate This Tab by Voting Up or Down

Vote Up Vote Down
Rating: -1 +0

Other Songs Like This

x

Copyright © 2017