Song: For What Its Worth

Band: Stick To Your Guns
Composed By: Stick to Your Guns

Rating: -0 +0 Views: 104



    

																				(lead guitar)(left ear)

(The best has yet to come!)              (we cannot go unsound)
|----------------------------------------|---------------|
|----------------------------------------|---4th time----|
|----------------------------------------|---------------|
|-000-666-000-666--13-13-12-8-77-3-6--x4-|-13-12-8-7-3-6-|
|-000-666-000-666--13-13-12-8-77-3-6-----|-13-12-8-7-3-6-|
|-000-666-000-666--13-13-12-8-77-3-6-----|-13-12-8-7-3-6-|




    

(and for far too long...)
|--------------------------------------------------|
|--------------------------------------------------|
|-777777-1010-8--x2-------------------10-8-7-8-7-5-|  x2
|-xxxxxx-x-x--x------111-111-111-111--x--x-x-x-x-x-|
|-555555-8-8--6------111-111-111-111--8--6-5-6-5-3-|
|--------------------111-111-111-111---------------|
                     ... ... ... ...

(we have so much more to give...)
|--------------------------------------------------|
|--------------------------------------------------|
|-121212121212141414141414151515151515191919191919-|  x2  (back to beginning)
|--x-x-x-x-x-x-x-x-x-x-x-x-x-x-x-x-x-x-x-x-x-x-x-x-|
|-101010101010121212121212131313131313171717171717-|  
|--------------------------------------------------|

                                         play till end          (hey!) (hey!)
|------------------------------------|---------------------------------|
|------------------------------------|---------------------------------|
|-12~-14~-15~--19-20-19-17-19-17--x2-|-121212-141414-151515--1919-1414-|
|--x---x---x----x--x--x--x--x--x-----|--x-x-x--x-x-x--x-x-x---x-x--x-x-|
|-10~-12~-13~--17-18-17-15-17-15-----|-101010-121212-131313--1717-1212-|
|------------------------------------|---------------------------------|
                                          .      .      .

View Albums that This Song Appears On...

  • For What It's Worth

    Genre: Pop/Rock Label: Sumerian Records Song Duration on Album: 3:35 Album Duration: 01:05:44

    Release Date: February 20, 2007

    Moods: Anguished/Distraught, Fiery, Manic, Urgent, Volatile, Intense, Suffocating, Unsettling, Cathartic, Outrageous, Tense/Anxious

    Styles: Hardcore Punk, Punk/New Wave, Heavy Metal

    Themes: Hanging Out

Close panel

Help Rate This Tab by Voting Up or Down

Vote Up Vote Down
Rating: -0 +0

Other Songs Like This

x

Copyright © 2017