Song: Left You Behind

Band: Stick To Your Guns
Composed By: Stick to Your Guns

Rating: -0 +0 Views: 72

---------------------------------------------------------------------------------------------------
                                          Artist - Stick To Your Guns
                                         *****************************
                                             Song - Left You Behind
                                            ************************
                                          Album - Disobedient (2015)  
                                         ****************************
                                             Tabbed By - Ayreon77
                                            **********************
---------------------------------------------------------------------------------------------------
Tuning = Standard




    

INTRO
******
  Gm                        Eb        Bb                F
e|-------------------------|---------|-----------------|-----------------|
B|-------------------------|---------|-----3-------3---|-----------------|
G|-----3-------3-------3---|-----3---|-------3-------3-|-----2-----3-2-3-|
D|---5---5---5---5---5---5-|---5---5-|---3-------3-----|---3---3---------|
A|-----------------5-------|-6-------|-1-------1-------|-----------------|
E|-3-------3---------------|---------|-----------------|-1-------1-------|


-------------------------
VERSE 1
********
  Play this through VERSE 1.
  Gm                        Eb        Bb                F
e|-------------------------|---------|-----------------|-----------------|
B|-------------------------|---------|-----3-------3---|-----------------|
G|-----3-------3-------3---|-----8---|-------3-------3-|-----2-----3-2-3-|
D|---5---5---5---5---5---5-|---8---8-|---3-------3-----|---3---3---------|
A|-----------------5-------|-6-------|-1-------1-------|-----------------|
E|-3-------3---------------|---------|-----------------|-1-------1-------|



    

Gm        Eb                  B
There's a story of a young man
        F              Gm
Who was taken from his home.
              Eb              Bb
He missed his sister become a women
        F                 Gm
And his father growing old.
                     Eb          Bb
From the distance he watched his mother,
        F               Gm
Mourn a loss, all alone.
                   Eb        Bb 
And when he thinks about his brother,
         F
He can't seem to find the phone.


-------------------------
CHORUS
*******
   Play this through the CHORUS
  Eb                Gm                F
e|-----------------|-----------------|-----------------|-----------------|
B|-----------------|-----------------|-----------------|-----------------|
G|-----8-------8---|-----3-------3---|-----2-------2---|-----8-------8---|
D|---8---8---8---8-|---5---5---5---5-|---3---3---3---3-|---8---8---8---8-|
A|-6-------6-------|-5-------5-------|-1-------1-------|-6-------6-------| 
E|-----------------|-----------------|-----------------|-----------------|X4

Eb         Gm            F                    Eb
  From the window of his life, he can see his home.
             Gm            F           Eb
As he passes by he feels a pain no one knows.
                  Gm                      F             Eb
Past every better judgement, he packs his things to run away.
        Gm                F                   Eb
Like an ocean distances a beast that can't be tamed.


-------------------------
Heavy grungy Guitar
BRIDGE
*******
Eb       Bb      Gm      F
   Wooh,    wooh,   wooh
            Eb
He left you behind!
     Bb       Gm      F
Wooh,   wooh,    wooh
            Gm
He left you behind!


-------------------------
VERSE 2
********
        Eb                  Bb
Now the young man roams the globe
                  F                     Gm
Searching for the very thing he left at home.
            Eb                  Bb
He searched far and wide, under every stone,
            F                      Gm
The more he walked the more he was alone.
           Eb                Bb
This young man is a lot like me,
                       F                 Gm
Except he learned from those mistakes he made.
           Eb                Bb
If I don't slow down I might break
                F               Eb
I'll be trapped forever in this cage


-------------------------
BREAK
******
Eb Gm F Eb X2

-------------------------
CHORUS
*******
Eb         Gm           F                   Eb
  From the window of my life, I can see his home.
             Gm           F           Eb
As he passes by I feels a pain no one knows.
                  Gm                    F            Eb
Past every better judgement, I pack my things to run away.
        Gm                F                   Eb
Like an ocean distances a beast that can't be tamed.


-------------------------
BRIDGE
*******
Eb       Bb      Gm      F
   Wooh,    wooh,   wooh
            Eb
He left you behind!
     Bb       Gm      F
Wooh,   wooh,    wooh
            Gm
He left you behind!



ENJOY........

View Albums that This Song Appears On...

  • Disobedient

    Genre: Pop/Rock Label: Sumerian Records Song Duration on Album: 4:29 Album Duration: 30:58

    Release Date: February 10, 2015

    Moods: Aggressive, Brash, Cathartic, Harsh, Hostile, Intense, Manic, Tense/Anxious, Urgent, Angry, Anguished/Distraught, Confrontational, Dramatic, Fiery, Suffocating, Unsettling, Visceral, Volatile, Earnest, Outrageous

    Styles: Screamo, Post-Hardcore, Alternative/Indie Rock, Hardcore Punk, Punk/New Wave

    Themes: Hanging Out, Jealousy, Guys Night Out

Close panel

Help Rate This Tab by Voting Up or Down

Vote Up Vote Down
Rating: -0 +0

Other Songs Like This

x

Copyright © 2017