Song: The Serpent

Band: Still Remains
Composed By: Michael Reid, Naomi Martin

Rating: -0 +0 Views: 136



    

																				Play Twice (with Second ending)
e|---------------------------------------------------------------------------|
B|---------------------------------------------------------------------------|
G|---------------------------------------------------------------------------|
D|-777777777777777777777777777799991010101010101010101010101010101099999999--|
A|---------------------------------------------------------------------------|
D|---------------------------------------------------------------------------|

e|---------------------------------------------------------------------------|
B|---------------------------------------------------------------------------|
G|---------------------------------------------------------------------------|
D|-7777777799999999999999999999999912121212121212129999999999999999----------|
A|---------------------------------------------------------------------------|
D|---------------------------------------------------------------------------|

e|---------------------------------------------------------------------------|
B|---------------------------------------------------------------------------|
G|-12121212121212121414141414141414------------------------------------------|
D|---------------------------------101010101010101010101010101010101010101010|
A|---------------------------------------------------------------------------|
D|---------------------------------------------------------------------------|



    

e|---------------------------------------------------------------------------|
B|---------------------------------------------------------------------------|
G|---------------------------------------------------------------------------|
D|10101010101010101010109999999999999999999999997777999910101010101010101010-|
A|---------------------------------------------------------------------------|
D|---------------------------------------------------------------------------|
                                                                first ending
e|-------------------------------------------------------------|----------------|
B|-------------------------------------------------------------|----------------|
G|-------------------------------------------------------------|----------------|
D|-101010101010101010101010101012121212121212129999999999999999|1010101010101010|
A|-------------------------------------------------------------|----------------|
D|-------------------------------------------------------------|----------------|
             second ending
e|----------|-----------------------------------------------------------------|
B|----------|-----------------------------------------------------------------|
G|----------|-14~--------12~--------------------------------------------------|
D|-88888888-|-----------------------------------------------------------------|
A|----------|-----------------------------------------------------------------|
D|----------|-----------------------------------------------------------------|

then
e|------------------------------------------------------------------|
B|------------------------------------------------------------------|
G|------------------------------------------------------------------|
D|-8888888888888888555555555555555588888888888888885555555555555555-|
A|-8888888888888888555555555555555588888888888888885555555555555555-|
D|-8888888888888888555555555555555588888888888888885555555555555555-|

e|------------------------------------------------------------------|
B|------------------------------------------------------------------|
G|------------------------------------------------------------------|
D|-8888888888888888555555555555555588888888888888885555555555553-3--|
A|-8888888888888888555555555555555588888888888888885555555555553-3--|
D|-8888888888888888555555555555555588888888888888885555555555553-3--|


e|--------------------------------------------------------------------|
B|--------------------------------------------------------------------|
G|--------------------------------------------------------------------|
D|-0~----------------3--5~----7---------------------------------------|
A|-0~---------------------------7-8~----------------------------------|
D|-0~-----------------------------------------------------------------|

View Albums that This Song Appears On...

  • The Serpent

    Genre: Pop/Rock Label: Roadrunner Records Song Duration on Album: 2:15 Album Duration: 41:50

    Release Date: August 7, 2007

    Moods: Passionate, Aggressive, Brash, Confrontational, Intense, Urgent, Angry, Cathartic, Raucous, Reckless, Tense/Anxious, Ambitious, Fiery, Exuberant

    Styles: Heavy Metal, Punk Metal, NĂ¼ Metal

    Themes: Affection/Fondness, Cool & Cocky, Empowering, Guys Night Out

Close panel

Help Rate This Tab by Voting Up or Down

Vote Up Vote Down
Rating: -0 +0

Other Songs Like This

x

Copyright © 2017