Song: When We Dance

Band: Sting

Rating: -1 +1 Views: 55

----------------------------------------------------------------------------
                     When We Dance (Intro) Tab by Sting
----------------------------------------------------------------------------
Tabbed by: The Kenster
Email: ken@struanrobertson.demon.co.uk

Tuning: Standard



    

e|-----------------|-----------------|-----------------|-----------------|
B|-----------0-----|-----------0-----|-----------0-----|-----------0-----|
G|-----1---1-----1-|-----1---1-------|-----1---1-----1-|-----1---1-------|
D|-------4-----4---|-------4-----1-2-|-------4-----4---|-------4-----1-2-|
A|---2-------------|---2-------------|---2-------------|---2-------------|
E|-0---------------|-0---------------|-0---------------|-0---------------|





    

| /  slide up
| \  slide down
| h  hammer-on
| p  pull-off
| ~  vibrato
| +  harmonic
| x  Mute note
============================================================================

Close panel

Help Rate This Tab by Voting Up or Down

Vote Up Vote Down
Rating: -1 +1

Other Songs Like This

x

Copyright © 2017