Song: Modern Girls And Old Fashioned Men

Band: Strokes

Rating: -0 +0 Views: 749



    

																				-------------------------------------------------------------------------------
	       The Strokes - Modern Girls and Old Fashioned Men
-------------------------------------------------------------------------------

[A] INTRO 

e|----------9--------------10-9----------9-------------10-9|
B|----10----------12----10---------10---------12----10-----|
G|-11-----11---11----11---------11----11---11----11--------| Gtr 1
D|---------------------------------------------------------| 
A|---------------------------------------------------------|
E|---------------------------------------------------------|
 |                                                         | x4
e|---------------------------------------------------------|
B|---------------------------------------------------------|
G|---------------------------------------------------------|
D|-11---------10----------------9----------10--------------| Gtr 2
A|-11---------11----------------11---------11--------------|
E|---------------------------------------------------------|



    


e|----------9--------------10-9----------9-------------10-9|
B|----10----------12----10---------10---------12----10-----|
G|-11-----11---11----11---------11----11---11----11--------|
D|---------------------------------------------------------| Gtr 1
A|---------------------------------------------------------|
E|---------------------------------------------------------|
 |                                                         | x2
e|---------------------------------------------------------|
B|---------------------------------------------------------|
G|---------------------------------------------------------|
D|-11-11-11----10-10-10---------9--9--9-----10-10-10-------| Gtr 2
A|-11-11-11----11-11-11---------11-11-11----11-11-11-------| Fast Down Strum
E|---------------------------------------------------------|

---Bass Line--- "You were..."

[B] VERSE 1

e|-99999999|99999999|109109109|109109109-------------------|  
B|---------------------------------------------------------|
G|---------------------------------------------------------|
D|---------------------------------------------------------| Gtr 1
A|---------------------------------------------------------|
E|---------------------------------------------------------|
 | A x16             D x16                                 | x3
e|-55555555|55555555|55555555|55555555---------------------|
B|-55555555|55555555|77777777|77777777---------------------|
G|-66666666|66666666|77777777|77777777---------------------|
D|-77777777|77777777|77777777|77777777---------------------|Gtr 2
A|-77777777|77777777|55555555|55555555---------------------| 
E|-55555555|55555555|55555555|55555555---------------------| (Both Guitars keep at same time)

[C] CHORUS 1

e|-14141414|14141414|16161616|16161616---------------------|  
B|-15151515|15151515|17171717|17171717---------------------|
G|---------------------------------------------------------|
D|---------------------------------------------------------| Gtr 1
A|---------------------------------------------------------|
E|---------------------------------------------------------|
 | Bm x16            E x16                                 | x3
e|-22222222|22222222|00000000|00000000---------------------|
B|-33333333|33333333|00000000|00000000---------------------|
G|-44444444|44444444|11111111|11111111---------------------|
D|-44444444|44444444|22222222|22222222---------------------| Gtr 2
A|-22222222|22222222|22222222|22222222---------------------| 
E|-22222222|22222222|00000000|00000000---------------------|

[B] VERSE 2

e|-99999999|99999999|109109109|109109109-------------------|  
B|---------------------------------------------------------|
G|---------------------------------------------------------|
D|---------------------------------------------------------| Gtr 1 
A|---------------------------------------------------------|
E|---------------------------------------------------------|
 | A x16             D x16                                 | x3
e|-55555555|55555555|55555555|55555555---------------------|
B|-55555555|55555555|77777777|77777777---------------------|
G|-66666666|66666666|77777777|77777777---------------------|
D|-77777777|77777777|77777777|77777777---------------------| Gtr 2
A|-77777777|77777777|55555555|55555555---------------------| 
E|-55555555|55555555|55555555|55555555---------------------| (Both Guitars keep at same time)

[C] CHORUS 2

e|-14141414|14141414|16161616|16161616---------------------|  
B|-15151515|15151515|17171717|17171717---------------------|
G|---------------------------------------------------------|
D|---------------------------------------------------------| Gtr 1
A|---------------------------------------------------------|
E|---------------------------------------------------------|
 | Bm x16            E x16                                 | x3
e|-22222222|22222222|00000000|00000000---------------------|
B|-33333333|33333333|00000000|00000000---------------------|
G|-44444444|44444444|11111111|11111111---------------------|
D|-44444444|44444444|22222222|22222222---------------------| Gtr 2
A|-22222222|22222222|22222222|22222222---------------------| 
E|-22222222|22222222|00000000|00000000---------------------|

[D] BRIDGE

e|---------------------------------------------------------|
B|---------------------------------------------------------|
G|---------------------------------------------------------|
D|---------------------------------------------------------| Gtr 1
A|---------------------------------------------------------|
E|---------------------------------------------------------|
 |D5               A5       D5               A5            | x2
e|---------------------------------------------------------|
B|---------------------------------------------------------|
G|---------------------------------------------------------|
D|---------------------------------------------------------| Gtr 2
A|-1212121212121212|77777777|1212121212121212|77777777-----|
E|-1010101010101010|55555555|1010101010101010|55555555-----|


e|-1414141414141414|99999999|1414141414141414|9999999999---|
B|-1515151515151515|10101010|1515151515151515|1010101010---|
G|---------------------------------------------------------|
D|---------------------------------------------------------| Gtr 1
A|---------------------------------------------------------|
E|---------------------------------------------------------|
 |D5               A5       D5               A5            | x3
e|---------------------------------------------------------|
B|---------------------------------------------------------|
G|---------------------------------------------------------|
D|---------------------------------------------------------| Gtr 2
A|-1212121212121212|77777777|1212121212121212|77777777-----|
E|-1010101010101010|55555555|1010101010101010|55555555-----|

[E] CHORUS III

e|-14141414|14141414|16161616|16161616---------------------|  
B|-15151515|15151515|17171717|17171717---------------------|
G|---------------------------------------------------------|
D|---------------------------------------------------------| Gtr 1
A|---------------------------------------------------------|
E|---------------------------------------------------------|
 | Bm x16             E x16                                | x3
e|-22222222|22222222|00000000|00000000---------------------|
B|-33333333|33333333|00000000|00000000---------------------|
G|-44444444|44444444|11111111|11111111---------------------|
D|-44444444|44444444|22222222|22222222---------------------| Gtr 2
A|-22222222|22222222|22222222|22222222---------------------| 
E|-22222222|22222222|00000000|00000000---------------------|

---Bass Line---"Was i..."

[F] Outro

e|----------9--------------10-9----------9-------------10-9|
B|----10----------12----10---------10---------12----10-----|
G|-11-----11---11----11---------11----11---11----11--------|
D|---------------------------------------------------------| Gtr 1
A|---------------------------------------------------------|
E|---------------------------------------------------------|
 |                                                         | x2
e|---------------------------------------------------------|
B|---------------------------------------------------------|
G|---------------------------------------------------------|
D|-11-11-11----10-10-10---------9--9--9-----10-10-10-------| Gtr 2
A|-11-11-11----11-11-11---------11-11-11----11-11-11-------| Fast Down Strum
E|---------------------------------------------------------|



e|----------9--------------10-9----------9-------------10-9|
B|----10----------12----10---------10---------12----10-----|
G|-11-----11---11----11---------11----11---11----11--------|
D|---------------------------------------------------------| Gtr 1
A|---------------------------------------------------------|
E|---------------------------------------------------------|
 |                                                         | x4
e|---------------------------------------------------------|
B|---------------------------------------------------------|
G|---------------------------------------------------------|
D|-11---------10----------------9----------10--------------| Gtr 2
A|-11---------11----------------11---------11--------------|
E|---------------------------------------------------------|


I tried to keep it clear as possible for timing on both guitars

Enjoy!

Close panel

Help Rate This Tab by Voting Up or Down

Vote Up Vote Down
Rating: -0 +0

Other Songs Like This

x

Copyright © 2017