Song: Bad Fish

Band: Sublime
Composed By: Brad Nowell

Rating: -1 +1 Views: 168



    

																				-------------------------------------------------------------------------------
			     Badfish - Sublime
-------------------------------------------------------------------------------
Tabbed by: nonpoint42
Email: me2846@hotmail.com

Tuning: Standard

 These are the chords used in the intro:



    

   A    Bm    G

e|-------2----3-----------------------------|
B|-2-----3----3-----------------------------|
G|-2-----4----0-----------------------------|
D|-2-----4----0-----------------------------|
A|-0-----2----2-----------------------------|
E|-------2----3-----------------------------|

This is the order they are played in
A, Bm, A, G, A, Bm, A, G, A

the strumming pattern and number of beats are easy to figure out

 these are the chords in the verse:

   A   Bm  G  A5  D  E

e|-9----7-----------------------------------|
B|-10---7--8

View Albums that This Song Appears On...

  • Second Hand Smoke

    Genre: Pop/Rock Label: Gasoline Alley/MCA Album Duration: 01:03:16

    Release Date: November 11, 1997

    Moods: Aggressive, Brash, Celebratory, Confident, Energetic, Playful, Rambunctious, Raucous, Reckless, Rousing, Rowdy, Thuggish

    Styles: Alternative Pop/Rock, Alternative/Indie Rock, Punk Revival, Ska-Punk, Third Wave Ska Revival

    Themes: Cool & Cocky, Drinking, Guys Night Out, Hanging Out, Partying, Sports

  • Surf Me Up!

    Label: Na?E / Naïve

    Release Date: January 16, 2009

Close panel

Help Rate This Tab by Voting Up or Down

Vote Up Vote Down
Rating: -1 +1

Other Songs Like This

x

Copyright © 2019