Song: Burnout Bass

Band: Sugarfree
Composed By: Frank Zappa

Rating: -1 +1 Views: 74



    

																				song:burnout
artist:sugarfree
tabbed by:ianlloydrosales


intro:



    

g|----------------|
d|----------------|
a|---------3-3333-| repeat 2x
e|--3-3333--------|

verse:

g|------------------|----------------------|
d|------------------|----------------------|
a|-----------3-3333-|-----------3---10-9-7-|
e|--3-3333h5--------|--3-3333h5------------|
   oh wag kang tumingin ng ganyan sakin..

g|------------------|------------------|
d|------------------|------------------|
a|-----------3-3333-|-----------3-3333-|
e|--3-3333h5--------|--3-3333h5--------|
  wg mo akng kultin, wg mo akng tanungin

..e2 ung part bago mg 2nd verse may slide ung bass d2..e2 din ung part na ga2mitin sa 2nd verse

g|----------------|
d|----------------|
a|----------------| repeat2x..(for 2nd verse repeat this 4x..)
e|--3-3333/8-8888-|

chorus:

g|-----------|--------------------|---------------|
d|-----------|--------------------|---------------|
a|-----------|--------------------|---------------|
e|--22222222-|--55555555-77777777-|--888888888888-|
               o,kay tagal din kitang minahal

g|--------------------|---------------|
d|--------------------|---------------|
a|--------------------|---------------|
e|--55555555-77777777-|--888888888888-|
 oh kay tagal din ktng minahal..

repeat intro 2x ulit

verse 3:

g|------------------|------------------|
d|------------------|------------------|
a|-----------3-3333-|-----------3-3333-|
e|--3-3333h5--------|--3-3333h5--------|
  kung iisipin mo di naman dati ganito

g|------------------|
d|------------------|
a|------------------| repeat 2x
e|--7-7-777-8-8-888-|

  teka muna teka lang
  kelan ba tayo nailang?

g|------------------|------------------|
d|------------------|------------------|
a|-----------3-3333-|-----------3-3333-|
e|--3-3333h5--------|--3-3333h5--------|
  kung iisipin mo di naman dati ganito

g|------------------|
d|------------------|
a|------------------| repeat 2x
e|--7-7-777-8-8-888-|
 kay bilis kasi ng buhay
 pati tayo'y natangay

repeat chorus tab: 

then:

g|-----------|                
d|-----------|
a|--2-2-3-33-| repeat 3x then 
e|-----------|
  wwooohhooooohh..

g|-----------------|
d|-----------------|
a|--55555555555555-|
e|-----------------|
  wwwoooooooohhhhhh..

adlib:
drum solo muna d2 then pasok ung bass with this tab:

g|----------|
d|----------|
a|------3-3-| repeat this 4x
e|--3-3-----|

then patapos nun mawa2la ung guitar and bass,ung vocals lang at drums.

final chorus:

g|--------------------|---------------|
d|--------------------|---------------|
a|--------------------|---------------|
e|--55555555-77777777-|--888888888888-|
  oh  kay tagal din kitang mamahlin
  Oh kay tagal din kitang mamahalin
  Oh mamahalin, mamahalin.

outro:

g|--------------------|
d|--------------------|
a|------------------7-|
e|--8-8-888-8-8-888---|


..yan po ung bass tab ng buong kanta..sana makatulong sa inyo yan...
keep on rockin "TEODORO ZAIDE"..

View Albums that This Song Appears On...

  • Burnout

    Label: EMI Music Distribution Song Duration on Album: 3:29

Close panel

Help Rate This Tab by Voting Up or Down

Vote Up Vote Down
Rating: -1 +1

Other Songs Like This

x

Copyright © 2019