Song: I Aint Like You Bass

Band: Suicidal Tendencies tab 1000 s

Rating: -0 +0 Views: 103



    

																				Song:	   I Aint' like You
Band:	   Suicidal Tendencies
Album:	   Freedumb
Tabbed by: Devlin Thornicroft


Intro and Verse



    

E:--1>--4>--3>--:    X10


Pre-Chorous

G:--------5------:
D:---------------:
A:------3--------:   X4
E:--6-6-----3----:
    s s s p s


G:------6---6-----5---5-----3---3-------:
D:--------------------------------------:
A:--4-4---4---3-3---3---1-1---1---1-----:
E:----------------------------------1---:
    s s p s p s s p s p s s p s p


Chorous

A:------3-3---------:
E:--6-6-----3-------:  X4		     \
					      \
					       \
G:------6---6-----5---5-----3---3--------:     / Repeat these
D:---------------------------------------:    /  parts twice
A:--4-4---4---3-3---3---1-1---1----1-----:   /
E:-----------------------------------1-3-:
    s s p s p s s p s p s s p s p


A:------3-3------:
E:--6-6-----3----:	- part 3



Back to Verse   X10

Chorus (same as before but leave out part 3)


Bridge and Outro

A:------3-3-----:
E:--6-6-----3---:     X8


A:--------3---:
E:--6-6-3-----:   X12


A:------3-3-----:
E:--6-6-----3---:     X4


A:--4>-3>-1>--4>-3>-1>--1-------:
E:------------------------1-3---:


			The End

Close panel

Help Rate This Tab by Voting Up or Down

Vote Up Vote Down
Rating: -0 +0

Other Songs Like This

x

Copyright © 2017