Song: Rest Stop Bass

Band: Suspicious Individuals

Rating: -0 +0 Views: 22

the other version was a little off. especially with riff order. this is 100%
correct. as with all suspicous individual songs you have to tune down half a step.

"Rest Stop"
written by Roy Kirby



    

main riff
G---------------------------------------------|
D-----8-8-6-----------------------------------|
A-6-6-----------8-8-6-----10-10-8-----8-8-6---|
E-----------6-6-------8-8---------6-6---------|

chorus
G---------------------------------------------------------------------------|
D---------------------------------------------------------------------------|
A-------------------------------------6-6-6-6-6-6--(3X)---------------------|
E-8-8-8-8-8-8-6-6-6-6-6-6-4-4-4-4-4-4-------------------8-8-8-8-8-8-8-8-6-6-|

(cont.)         bridge
G--------------|---------------------------------------------------|
D--------------|---------------------------------------------------|
A--------------|-------------3-3-3-3-3-3-------------6-6-6-6-6-6---|
E-6-6-6-6-6-6--|-1-1-1-1-1-1-------------4-4-4-4-4-4---------------|



    

bass break solo type thang(after guitar solo)
G---------------8-8-6------------------------------------------|
D-----8-8-6-6-6-----------8-8-6--------------------------------|
A-6-6-----------------6-6-----------8-8-6-----8-8-6-----8-8-6--|
E-------------------------------6-6-------6-6-------6-6--------|

that's it 100% correct.

Close panel

Help Rate This Tab by Voting Up or Down

Vote Up Vote Down
Rating: -0 +0

Other Songs Like This

x

Copyright © 2017