Song: Science

Band: System Of A Down
Composed By: Daron Malakian, Serj Tankian

Rating: -0 +0 Views: 95



    

																				< > : natural harmonic
x : dead note
~ : let the cord ring

Intro:
d|----------------------------------------|
a|----------------------------------------|
f|--<7>-----------------------------------|
c|------0-0-000-0-0-000-0-0-000-0-0-------| (2 times)
g|----------------------------------------|
C|----------------------------------------|
        Pm. . . . . . . . . . . . .

d|----------------------------------------|
a|----------------------------------------|
f|--<7>-----------------------------------|
c|------0-0-000-0-0-000-0-0---------------| (2 times)
g|----------------------------------------|
C|----------------------------------------|
        Pm. . . . . . . . .



    

d|----------------------------------------|
a|----------------------------------------|
f|--<7>----<7>-----<7>-----<7>------------|
c|-----0-0-----0-0-----0-0-----0-0--------| (1 time)
g|----------------------------------------|
C|----------------------------------------|
       Pm.     . .     . .     . .

d|----------------------------------------|
a|----------------------------------------|
f|--7-------------------------------------|
c|--x-------------------------------------| (3 times)
g|--5--0-0-0-0-0-0------------------------|
C|-----0-0-0-0-0-0------------------------|
       Pm. . . . .

d|----------------------------------------|
a|----------------------------------------|
f|----------------------------------------|
c|----------5-----------------------------| (1 time)
g|----5-7-8---8-7-------------------------|
C|--8-------------------------------------|

d|----------------------------------------|
a|----------------------------------------|
f|--7-------------------------------------|
c|--x-------------------------------------| (3 times)
g|--5--0-0-0-0-0-0------------------------|
C|-----0-0-0-0-0-0------------------------|
       Pm. . . . .

d|----------------------------------------|
a|----------------------------------------|
f|----------------------------------------|
c|----------5-----------------------------| (1 time)
g|----5-7-8---8-7-------------------------|
C|--8-------------------------------------|

d|----------------------------------------|
a|----------------------------------------|
f|----------------------------------------|
c|--^7--0-0-000-0-0-000-0-0-000-0-0-------| (2 times)
g|--^5------------------------------------|
C|----------------------------------------|
        Pm. . . . . . . . . . . . .

d|----------------------------------------|
a|----------------------------------------|
f|--^7------------------------------------|
c|--^5--0-0-000-0-0-000-0-0---------------| (2 times)
g|----------------------------------------|
C|----------------------------------------|
        Pm. . . . . . . . .

d|----------------------------------------|
a|----------------------------------------|
f|--^7-------^7-------^7-------^7---------|
c|--^5--0-0--^5--0-0--^5--0-0--^5--0-0----| (1 time)
g|----------------------------------------|
C|----------------------------------------|
       Pm.     . .     . .     . .

d|----------------------------------------|
a|----------------------------------------|
f|--7-------------------------------------|
c|--x

View Albums that This Song Appears On...

  • Toxicity

    Genre: Pop/Rock Label: Sony Music Distribution Song Duration on Album: 2:43 Album Duration: 44:01

    Release Date: September 4, 2001

    Moods: Complex, Fiery, Intense, Cerebral, Energetic, Passionate, Provocative, Cathartic, Manic, Rousing, Visceral, Aggressive, Confrontational, Uncompromising, Angry, Angst-Ridden

    Styles: Alternative Metal, Heavy Metal

    Themes: Revolutionary

  • Hypnotize, Pt. 1

    Label: Sony Music Distribution

    Release Date: January 10, 2006

    Moods: Aggressive, Angry, Angst-Ridden, Cathartic, Cerebral, Complex, Confrontational, Energetic, Fiery, Intense, Manic, Passionate, Provocative, Rousing, Uncompromising, Visceral

    Styles: Alternative Metal, Heavy Metal, Hard Rock

  • System of a Down Album Bundle

    Label: Sony Music

Close panel

Help Rate This Tab by Voting Up or Down

Vote Up Vote Down
Rating: -0 +0

Other Songs Like This

x

Copyright © 2017