Song: Full Moon

Band: The Black Ghosts
Composed By: Simon Lord, Theo Keating

Rating: -0 +0 Views: 101



    

																				It's the melody of the song or what your voice should sound like. I think it's sounds 
good and it took me a while, so it should be pretty accurate! I hope you enjoy it and 
tell me what you think!


When the thorn bush turns white, that's when I'll come home.
I am going out to see what I can sew.



    

e---------------------------------------|
B----1--3--3--3--3--1--0----------------|
G--2----------------------2--0--2-------|
D---------------------------------------| [repeat twice]
A---------------------------------------|
E---------------------------------------|

And I don't know where I'll go,
And I don't know what I'll see,

e---------------------------------------------|
B----1--3--3--3--5--6-----1--3--3--3--5--6----|
G--2-------------------2----------------------|
D---------------------------------------------|
A---------------------------------------------|
E---------------------------------------------|

but I'll try not to bring it back home with me.

e---------------------------------------|
B----1--3--3--3--3--1--0----------------|
G--2----------------------2--0--2-------|
D---------------------------------------|
A---------------------------------------|
E---------------------------------------|

Like the morning sun, your eyes will follow me
as you watch me wander, curse the powers that be.

e---------------------------------------|
B----1--3--3--3--3--1--0----------------|
G--2----------------------2--0--2-------|
D---------------------------------------| [repeat twice]
A---------------------------------------|
E---------------------------------------|

Cause all I want is here and now,
but its already been and gone.

e---------------------------------------------|
B----1--3--3--3--5--6-----1--3--3--3--5--6----|
G--2-------------------2----------------------|
D---------------------------------------------|
A---------------------------------------------|
E---------------------------------------------|

Our intentions always last that bit too long.

e---------------------------------------|
B----1--3--3--3--3--1--0----------------|
G--2----------------------2--0--2-------|
D---------------------------------------|
A---------------------------------------|
E---------------------------------------|

Ah,Ah, Ah, Ah, Ah, Ah, Ah, Ah, Ah, Ah

e--6--2--4--2--1-------------------|
B-----------------4--2--1--2-------|
G-----------------------------3----|
D----------------------------------|
A----------------------------------|
E----------------------------------|

Ah,Ah, Ah, Ah, Ah, Ah, Ah, Ah, Ah, Ah, Ah, Ah, Ah, Ah, Ah, Ah

e--6--2--4--2--1-------------------------------------|
B-----------------4--2--1--2-----------------2--1----|
G-----------------------------3--1-----1--3----------|
D-----------------------------------4----------------|
A----------------------------------------------------|
E----------------------------------------------------|

e----------------------------------------|
B--4----4--2--4----4--2--4----4--2--4----|
G----------------------------------------|
D----------------------------------------|
A----------------------------------------|
E----------------------------------------|

Far far away, no voices sounding,

e-------------------------------------------------------|
B-------------------------------------------------------|
G--3--3--3--3[slide to 1]--3--3--3--3[slide to 1]--1----|
D-------------------------------------------------------|
A-------------------------------------------------------|
E-------------------------------------------------------|

no one around me, and you're still there.

e-------------------------------------------------------|
B-------------------------------------------------------|
G--3--3--3--3[slide to 1]-----3-------------------------|
D--------------------------------4--3--1[slide to 3]----|
A-------------------------------------------------------|
E-------------------------------------------------------|

Far far away, no choices passing,

e-------------------------------------------------------|
B-------------------------------------------------------|
G--3--3--3--3[slide to 1]--3--3--3--3[slide to 1]--1----|
D-------------------------------------------------------|
A-------------------------------------------------------|
E-------------------------------------------------------|

no time confounds me, and you're still there.

e-------------------------------------------------------|
B-------------------------------------------------------|
G--3--3--3--3[slide to 1]-----3-------------------------|
D--------------------------------4--3--1[slide to 3]----|
A-------------------------------------------------------|
E-------------------------------------------------------|

In the full moons light I listen to the stream,
and in between the silence hear you calling me.

e---------------------------------------|
B----1--3--3--3--3--1--0----------------|
G--2----------------------2--0--2-------|
D---------------------------------------| [repeat twice]
A---------------------------------------|
E---------------------------------------|

But I don't know where I am,
and I don't trust who I've been

e---------------------------------------------|
B----1--3--3--3--5--6-----1--3--3--3--5--6----|
G--2-------------------2----------------------|
D---------------------------------------------|
A---------------------------------------------|
E---------------------------------------------|

And If I come home how will I ever leave?

e---------------------------------------|
B----1--3--3--3--3--1--0----------------|
G--2----------------------2--0--2-------|
D---------------------------------------|
A---------------------------------------|
E---------------------------------------|

Ah,Ah, Ah, Ah, Ah, Ah, Ah, Ah, Ah, Ah

e--6--2--4--2--1-------------------|
B-----------------4--2--1--2-------|
G-----------------------------3----|
D----------------------------------|
A----------------------------------|
E----------------------------------|

Ah,Ah, Ah, Ah, Ah, Ah, Ah, Ah, Ah, Ah, Ah, Ah, Ah, Ah, Ah, Ah

e--6--2--4--2--1-------------------------------------|
B-----------------4--2--1--2-----------------2--1----|
G-----------------------------3--1-----1--3----------|
D-----------------------------------4----------------|
A----------------------------------------------------|
E----------------------------------------------------|


e----------------------------------------|
B--4----4--2--4----4--2--4----4--2--4----|
G----------------------------------------|
D----------------------------------------|
A----------------------------------------|
E----------------------------------------|

View Just Lyrics...

When the full moon turns white that's when I'll come home
I am going out to see what I can sow
And I don't know where I'll go
And I don't know what I'll see
But I'll try not to bring it back home with me

Like the morning sun your eyes will follow me
As you watch me wander, curse the powers that be
Cause all I want is here and now but its already been and gone
Our intentions always last that bit too long

Far far away, no voices sounding, no one around me and
You're still there
Far far away, no choices passing, no time confounds me and you're still there

In the full moons light I listen to the stream
And in between the silence hear you calling me
But I don't know where I am and I don't trust who I've been
And If I come home how will I ever leave

View Albums that This Song Appears On...

  • The Black Ghosts

    Label: Universal Republic / Southern Fried Song Duration on Album: 3:51

    Release Date: July 8, 2008

    Moods: Bright, Confident, Elegant, Energetic, Quirky, Refined, Relaxed, Sexy, Slick, Smooth, Sophisticated, Stylish, Wistful

    Styles: Alternative/Indie Rock, Electronica, Indie Electronic

    Themes: Club, Hanging Out, Partying, The Creative Side

  • Twilight

    Genre: Stage & Screen Label: Atlantic / Chop Shop Song Duration on Album: 3:50 Album Duration: 45:28

    Release Date: November 4, 2008

    Moods: Angst-Ridden, Bittersweet, Brooding, Cathartic, Dramatic, Melancholy, Nocturnal, Poignant, Reflective, Slick, Somber, Yearning

    Styles: Soundtracks, Alternative Pop/Rock, Alternative/Indie Rock, Emo, Pop, Punk-Pop

    Themes: Breakup, Feeling Blue, Heartache, In Love, Introspection, Reflection

  • Full Moon

    Genre: Electronic Label: Southern Fried Song Duration on Album: 3:51 Album Duration: 3:51

    Release Date: December 3, 2008

Close panel

Help Rate This Tab by Voting Up or Down

Vote Up Vote Down
Rating: -0 +0

Other Songs Like This

x

Copyright © 2017