Song: Teach Bass

Band: The Chariot
Composed By: Chariot, The Chariot

Rating: -0 +0 Views: 65



    

																				 
      Q    E  E  Q     Q       Q     Q    E  E  Q        Q    E  E  Q     Q     
E ||------------------------|-------------------------|------------------------|
B ||------------------------|-------------------------|------------------------|
F#||-------5--5--5b---------|--5b---------5--5--5b----|-------5--5--5b---------|
B ||--0----------------0----|--------0----------------|--0----------------0----|




    

  Q     Q    Q     Q       E  E  E  E  Q     Q       Q     Q    Q     Q     
------------------------|-------------------------|------------------------|
------------------------|-------------------------|------------------------|
--5b---------5b---------|--5-----5--5--5b---------|--5b---------5b---------|
--------0----------0----|--------------------0----|--------0----------0----|


  E  E  Q     Q    Q        Q    Q     Q    E  E     Q     Q     
-------------------------|------------------------|-------------|
-------------------------|------------------------|-------------|
--5--5--5b---------5b----|-------5b---------5--5--|--5b---------|
--------------0----------|--0----------0----------|--------0----|


  E  E  E  E  E  E  E  E     E  E  E  E  E  E  Q        W                 
--------------------------|--------------------------|-------------------|
--------------------------|--------------------------|-------------------|
--8--8--8--8--8--8--8--8--|--8--8--8--8--8--8--8\----|--L----------------|
--------------------------|--------------------------|-------------------|


    Q    E  E  Q     Q    Q     Q    Q      4x  Q    E  E  Q     Q     
|-------------------------------------------||------------------------|
|*-------3--3--3b---------3b---------3b----*||-------3--3--3b---------|
|*-------5--5--5b---------5b---------5b----*||-------5--5--5b---------|
|---0----------------0----------0-----------||--0----------------0----|


    Q    Q    Q    Q       Q    Q    Q    Q     3x
|-----------------------|-----------------------||
|*----------------------|----------------------*||
|*--8----8----8----8----|--8----8----8----8----*||
|-----------------------|-----------------------||


   Q    E  E  Q    Q    E   E   E   E   
---------------------------------------|
*--------------------------------------|
*--------------------------------------|
---0----0--0--0----0----0h--2h--3p--2--|


  Q    E  E  Q    Q    E   E   E   E     
---------------------------------------||
--------------------------------------*||
--------------------------------------*||
--0----0--0--0----0----0h--3p--2h--3---||


  Q    E  E  Q     Q    Q     Q    Q        Q    E  E  E  E  Q      
-----------------------------------------|-------------------------|
-------3--3--3b---------3b---------3b----|-------3-----3--3--3b----|
-------5--5--5b---------5b---------5b----|-------5-----5--5--5b----|
--0----------------0----------0----------|--0----------------------|


  |----3----|    |----3----|       |----3----|    |----3----|     
  Q    Q    Q    Q    Q    Q       Q    Q    Q    Q    Q    Q     
--------------------------------|--------------------------------|
--------------------------------|--------------------------------|
--5---------5---------5---------|--5---------5---------5---------|
--0---------0---------0---------|--0---------0---------0---------|


  W                   W                   W                 
-------------------|-------------------|-------------------|
-------------------|-------------------|-------------------|
-------------------|-------------------|-------------------|
-------------------|-------------------|-------------------|


    E  E  E  E  E  E  E  E   8x  E  H.           E       Q    Q    E  E  E  E   
|----------------------------||---------------------||-------------------------|
|*--------------------------*||---------------------||*------------------------|
|*--------------------------*||--5------------------||*------------------------|
|---0--0--0--0--0--0--0--0---||--0------------------||---0---------0--x--0--x--|


  Q    E  E  E  E  E  E     Q    E  E  Q    Q         E  E  E  E  E  E  E  E   
-------------------------|------------------------||--------------------------|
-------------------------|-----------------------*||--------------------------|
-------------------------|-----------------------*||--------------------------|
-------0--x--0--x--0--x--|--L----0--x-------------||--0--x--0--x--0--x--0--x--|


  E  E  Q    Q    Q    E  E  E  E  Q       Q    W                Q    Q     
----------------------------------------|----------------------------------|
----------------------------------------|----------------------------------|
----------------------------------------|----------------------------------|
--0--x-------0---------0--x--0--x-------|--0--------------------------1----|


                           |----3----|    |----3----|                         
  Q    W.                  Q    Q    Q    Q    Q    Q       W                 
------------------------|--------------------------------|-------------------|
------------------------|--------------------------------|-------------------|
------------------------|--5---------5---------5---------|--5----------------|
--0---------------------|--0---------0---------0---------|--0----------------|


  W                   W                   E  E  E  E   E  E  E   E   
-------------------|-------------------|--8-----9-----10------------|
-------------------|-------------------|------------------------10--|
-------------------|-------------------|---------------------8------|
-------------------|-------------------|----------------------------|


   E  E   E  E  E   E   E  E      E  E  E   E   E  E   
--10-----10------------10-----|--10------------10-----|
-------------------10---------|------------10---------|
----------------8-------------|---------8-------------|
------------------------------|-----------------------|


                     |---3---|                   |---3---|          
  E  E  E  E   E  E  E  E    E      E  E   E  E  E  E    E   E  E   
--8-----9-----10----------------|--10-----10----------------10-----|
------------------------9h--10--|-------------------9h--10---------|
---------------------8----------|----------------8-----------------|
--------------------------------|----------------------------------|


         |---3---|                                       
   E  E  E  E    E   E  E     E  E  E  E   E  E  E   E   
--10----------------10-----|--8-----9-----10------------|
------------9h--10---------|------------------------10--|
---------8-----------------|---------------------8------|
---------------------------|----------------------------|


   E  E   E  E  E   E   E  E      E  E  E   E   E  E     E  E  E  Q.       
--10-----10------------10-----|--10------------10-----|--8-----9---------||
-------------------10---------|------------10---------|------------------||
----------------8-------------|---------8-------------|------------------||
------------------------------|-----------------------|------------------||




Duration Legend
---------------
W - whole
H - half
Q - quarter
E - 8th
S - 16th
T - 32nd
X - 64th
. - note dotted
|-n-|  - n-tuplets


Tablature Legend
----------------
L - tied note
x - dead note
g - grace note
(n) - ghost note
> - accentuded note
NH - natural harmonic
AH - artificial harmonic
TH - tapped harmonic
SH - semi harmonic
PH - pitch harmonic
h - hammer on
p - pull off
b - bend
br - bendRelease
pb - preBend
pbr - preBendRelease
brb - bendReleaseBend
\n/ - tremolo bar dip
\n - tremolo bar dive
-/n - tremolo bar Release up
/n\ - tremolo bar inverted dip
/n - tremolo bar return
-\n - tremolo bar Release down
S - shift slide
s - legato slide
/ -  slide into from below or out of upwards
\ -  slide into from above or out of downwards
~ - vibrato
W - wide vibrato
tr - trill
TP - tremolo picking
T - tapping
S - slap
P - pop
< - fade in
^ - brush up
v - brush down

View Albums that This Song Appears On...

  • Wars and Rumors of Wars

    Genre: Pop/Rock Label: Solid State / Tooth & Nail/Solid State Song Duration on Album: 2:53 Album Duration: 30:24

    Release Date: May 5, 2009

    Moods: Aggressive, Dramatic, Urgent, Confident, Fiery, Harsh, Hostile, Passionate, Raucous, Spiritual, Visceral, Acerbic, Uncompromising, Bleak, Energetic, Intense, Tense/Anxious, Cathartic

    Styles: Alternative CCM, Contemporary Christian, Alternative Metal, Heavy Metal, Alternative/Indie Rock, Post-Hardcore

    Themes: Empowering, Freedom, Motivation

Close panel

Help Rate This Tab by Voting Up or Down

Vote Up Vote Down
Rating: -0 +0

Other Songs Like This

x

Copyright © 2017