Song: The Thief Bass

Band: The Dear Hunter
Composed By: Gerard Stellaard

Rating: -0 +0 Views: 149



    

																				0:11-0:36
"Criminal..."

G|---------------------------------------------------------------->
D|--------------------------------0-----------------------------0->
A|3-0-0-0---0-3-0-3-0-0-0---0-3-0-------------1---1---------0-3--->
E|--------3---------------3---------3-3-3-1-3---3---3-3-3-3------->

 <---------------------------------------------------------------->
 <3-0-0-0---0-3-0-3-0-0-0---0-3-0-3-0-0-0---0-3-0-3-0-0-0---0-3-0->
 <--------3---------------3---------------3---------------3------->
 <---------------------------------------------------------------->



    

 <---------------------------------------------------------------->
 <--------------------------------0-----------------------------0->
 <3-0-0-0---0-3-0-3-0-0-0---0-3-0-------------1---1---------0-3--->
 <--------3---------------3---------3-3-3-1-3---3---3-3-3-3------->

                                  <-------------------------------|
                                  <3-0-0-0---0-3-0-3-0-0-0---0-3-0|
                                  <--------3---------------3------|
                                  <-------------------------------|


0:37-0:48
"Who can save us now?"

G|---------------------------------------------|
D|--------------------------------0-0-0---0-0-0|
A|0-0-0---0-0-0---3-3-3---3-3-3----------------|
E|---------------------------------------------|


Rest from 0:49-1:03


1:04-1:16
"More than I could ask from those who sleep..."

G||*----------------------------*||
D||*----------------------------*||
A||*----------------------------*||
E||*1-1-1---1-1-1---3-3-3--3-3-3*|| [2x]


1:17-1:24
"They collide..."

G|-------------------------------------------------------------|
D|3-0-0-0---0-3-0-3-0-0-0---0-3-0-3-0-0-0---0-3-0-3-0-0-0---0-3|
A|--------3---------------3---------------3---------------3----|
E|-------------------------------------------------------------|


1:25-1:36
"Cheating..."

G|-----------------------------------------------------------------------|
D|3-0-0-0---0-3-0-3-0-0-0---0-3-0-------------------------------0--------|
A|--------3---------------3-------3-0-0-0---0-3-0-3-0-0-0---0-3---3------|
E|----------------------------------------3---------------3---------3-3-3|


Rest from 1:37-1:46


1:47-2:08
"Tonight..."

G||*-----------------------------------------------*||
D||*3-0-0-0---0-3-0-3-0-0-0---0-2-0-2-0-0-0---0-2-0*||
A||*--------3---------------3---------------3------*||
E||*-----------------------------------------------*|| [6x]


2:09-2:59
"Tonight..."

G||*-------------------------------*||      -----  
D||*--0-3-0-3-0-0-0---0-2-0-2-0-0-0*||      --0-3 Play these three notes 
A||*3---------------3--------------*||      3---- after the 12th repeat. 
E||*-------------------------------*||[12x] -----


3:01-3:27
"Got time, got time..."

G||*-------|--------------------------------------------------------------*||
D||*3-0-3-5|-3-0-0-0---0-3-0-3-0-0-0---0-2-0-2-0-0-0---0-2-0-3-0-0-0---0-3*||
A||*-------|---------3---------------3---------------3---------------3----*||
E||*-------|--------------------------------------------------------------*||

Play the above part 3x


3:28-3:31
"Got time, got time..."

G|-----------|
D|3-0-3-5----|
A|--------5\0|
E|-----------|


3:37-4:05
"Love seems bare of meaning when cash is king..."

G|-||*-----------------*||
D|-||*-----------------*||
A|-||*-----------------*||
E|3||*111-111---333-333*||[4x]


4:06-4:16
"They collide..."

G|---------------|
D|---------------|
A|---------------|
E|555-555-555-555|


Tab by A. Romanski

View Just Lyrics...

(Shrouded) criminal and in the fade of myâ?¦
(We must let words go)
Shadow, theyâ??re oblivious
With plans around
(we want)
Who can save us now?

Love seems barren when cash is king
Wealthy for the bleeding, what good will bring
More than I could ask from those who sleep
A crooked mind and honest heart can still agree
Make emâ?? right

Cheating innocence
Iâ??ve got the time to breathe

Tonight

Got time, got time.
I got time, got time.

View Albums that This Song Appears On...

  • Act III: Life and Death

    Label: Triple Crown Records

    Release Date: June 23, 2009

    Moods: Bittersweet, Earnest, Intimate, Precious, Refined, Restrained, Complex, Literate, Ambitious, Elaborate

    Styles: Alternative/Indie Rock, Indie Rock

    Themes: Autumn, Introspection, Reflection, Solitude

Close panel

Help Rate This Tab by Voting Up or Down

Vote Up Vote Down
Rating: -0 +0

Other Songs Like This

x

Copyright © 2017