Song: The Curcus That Has Brought Us Back To These Nightsyo Chocola Bass

Band: The Fall Of Troy

Rating: -1 +1 Views: 115



    

																				The Fall of Troy-The Curcus That has Brought Us Back To These Nights(Yo Chocola)
Standard Tuning
| /  slide up
| \  slide down
| h  hammer-on
| p  pull-off
| ~  vibrato
| +  harmonic
| x  Mute note
0:14
G|-------------------------------------------------------------|
D|-------------3--------------3-----------------------------3--|
A|55-555-555-55--55-555-555-55--11-111-111-111-33-333-333-33---|
D|-------------------------------------------------------------|

G|-------------------------------------------------------------|
D|-------------3--------------3--------------------------------|
A|55-555-555-55--55-555-555-55--11-111-111-111-33333333333333--|
D|-------------------------------------------------------------|




    

0:29
G|------------------------------|
D|------------------------------|
A|1111111111111111--------------|
D|----------------0-0-0---------|x4


0:44
G|-------------------------------------------------------------|
D|-------------3--------------3-----------------------------3--|
A|55-555-555-55--55-555-555-55--11-111-111-111-33-333-333-33---|
D|-------------------------------------------------------------|x2

G|-------------------------------------------------------------|
D|-------------3--------------3--------------------------------|
A|55-555-555-55--55-555-555-55--11-111-111-111-33333333333333--|
D|-------------------------------------------------------------|


1:07
G|------------------------------|
D|------------------------------|
A|1111111111111111--------------|
D|----------------0-0-0---------|x4


1:22
G|----------------------------------------------------------|
D|------------------------------10h121210h121210h121210h12--|
A|------10h12-------10h12-----------------------------------|
D|8-8-8-------8-8-8-------0-0-0-----------------------------|x4


1:52
G|------------------------------------------------------------------|
D|------------------------------------------------------------------|
A|--55-555-555-55-5-33-333-333-33-3-11-111-111-11-1-00-000-033-333--|
D|8-----------------------------------------------------------------|

G|------------------------------------------------------------------|
D|------------------------------------------------------------------|
A|5555555555555555333333333333333311111111111111110000000033333333--|
D|------------------------------------------------------------------|x3

G|-----------------------------------------------------------------|
D|-----------------------------------------------------------------|
A|555-555-555-555-333-333-333-333-111-111-111-111-000-000-333-333--|
D|-----------------------------------------------------------------|x2


2:38
G|----------------------------------------------------------|
D|------------------------------10h121210h121210h121210h12--|
A|------10h12-------10h12-----------------------------------|
D|8-8-8-------8-8-8-------0-0-0-----------------------------|x4


3:00
G|---------------------------------------------------------------|
D|-------------3--------------3--------------3--------------3----|
A|55-555-555-55--55-555-555-55--55-555-555-55--55-555-555-55--5--|
D|---------------------------------------------------------------|

Close panel

Help Rate This Tab by Voting Up or Down

Vote Up Vote Down
Rating: -1 +1

Other Songs Like This

x

Copyright © 2019