Song: Malcontented One

Band: The Holloways
Composed By: A. Jackson

Rating: -0 +0 Views: 410



    

																				Band: The holloways
Album: So this is great Britain
Song: Malconted One
Tabbed by Eragond22


|-9----------12-xx-11-11-x-12--|
|---12-9-----x--xx-x--x--x-x---|
|--------11--9--xx-8--8--x-9---| This is the harmonica and the guitar in the beginning!!!
|------------------------------|
|------------------------------|
|------------------------------|



    


Intro:
|---------------------|
|-------------5---9-9-|
|-11----------6-8-9-9-|
|-22----------6-9-9-9-|
|-22---2-4----4-9-7-7-|
|-00-44---------7-----|x3 

|------------------555-555---555-555---555-555------------|
|-------------5----555-555---555-555---555-555------------|
|-11----------6-8--666-666---666-666---666-666----------1-|
|-22----------6-9--777-777---777-777---777-777--7777777-2-|
|-22---2-4----4-9--777-777---777-777---777-777--7777777-2-|
|-00-44---------7--555-555---555-555---555-555--5555555-0-|

|-------------|     |-------------|
|-------------|     |-------------|
|-11----------| OR  |-11----------| Im not sure on this part...;D
|-22----------|     |-22--66--44--|
|-22----------|     |-22--44--22--|
|-00--44--22--|     |-00----------|



Then it's
the Verse:                
|---------------| 
|-9---9---5-4---| 
|-9-8-9-8-6-4-1-| 
|-9-9-9-9-6-4-2-| 
|-7-9-7-9-4-2-2-| 
|---7---7-----0-|x2

|---------------|    
|-5---9-9-5-4---|    
|-6-8-9-9-6-4-1-|   
|-6-9-9-9-6-4-2-|    
|-4-9-7-7-4-2-2-|   
|---7---------0-|x1

|---------------|
|-9---4-4-2-2-4-|
|-9-8-6-4-2-2-4-|
|-9-9-6-4-2-2-4-|
|-7-9-4-2-0-0-2-|
|---7-----------|x1


Interlude:

|---------|     
|-5---9-9-|      
|-6-8-9-9-|      
|-6-9-9-9-|      
|-4-9-7-7-|      
|---7-----|x1

|---------------------|
|-------------5---9-9-|
|-11----------6-8-9-9-|
|-22----------6-9-9-9-|
|-22---2-4----4-9-7-7-|
|-00-44---------7-----|x3 



VERSE again!!!



Then it's
the Bridge: 
                                        
|-----5-0-|      |-2222222222222222-55555555-77777777-|
|-5-4-5-0-|      |-2222222222222222-55555555-77777777-|
|-6-4-6-1-|      |-3333333333333333-66666666-88888888-|
|-6-4-7-2-|      |-4444444444444444-77777777-99999999-|
|-4-2-7-2-|      |-4444444444444444-77777777-99999999-|
|-----5-0-|x3    |-2222222222222222-55555555-77777777-|x1



VERSE again!!!



Outro:
|---------|    
|-5---9-9-|    
|-6-8-9-9-|    
|-6-9-9-9-|    
|-4-9-7-7-|    
|---7-----|x1  

|---------------------|
|-------------5---9-9-|
|-11----------6-8-9-9-|
|-22----------6-9-9-9-|
|-22---2-4----4-9-7-7-|
|-00-44---------7-----|x2 

|------------------555-555---555-555---555-555-----------|
|-------------5----555-555---555-555---555-555-----------|
|-11----------6-8--666-666---666-666---666-666---------1-|
|-22----------6-9--777-777---777-777---777-777--777777-2-|
|-22---2-4----4-9--777-777---777-777---777-777--777777-2-|
|-00-44---------7--555-555---555-555---555-555--555555-0-|x1


And that's it :D



LYRICS:

When i was one
my papa dropped me on my head, 
and some damage was done

Around the bend and out of my tree
not how i was meant to be
I don't know where, went all my sense
i get lost sitting on the fence

I am the malcontented one
i don't fit in and i never have done
No i never have done

Second Verse, Second verse
Already lost for words
Not complicated i'm just so frustrated
I got so little to say

I don't know where, where i'm from
They say i'm British i don't know where i belong.
I am the malcontented one 
I don't fit in, i never have done

I am a dissapearing boy
(I am a dissapearing boy)
I'll lock back, i'm paranoid

Third verse, still lost for words
I don't know what to do
Oh my friend im not in the groove
Not on the same level as you

I felt so lost for far too long
And i'm past caring for how to get along
I am the malcontented one 
I don't fit in, i never have done
No i never have done

(I am a dissapearing boy)
No, i never have done
I never never never have done
(I am a dissapearing boy)
No i never have done

View Albums that This Song Appears On...

  • So, This Is Great Britain?

    Genre: Pop/Rock Label: TVT Song Duration on Album: 2:33 Album Duration: 42:30

    Release Date: October 30, 2006

    Moods: Confident, Freewheeling, Lively, Playful, Stylish, Boisterous, Rambunctious, Energetic, Visceral, Brash, Rousing, Volatile, Aggressive

    Styles: Alternative/Indie Rock, Indie Rock

    Themes: Cool & Cocky, Guys Night Out, Partying, TGIF, Playful

Close panel

Help Rate This Tab by Voting Up or Down

Vote Up Vote Down
Rating: -0 +0

Other Songs Like This

x

Copyright © 2017