Song: 24 Floors

Band: The Maine
Composed By: Flora Purim

Rating: -0 +0 Views: 29

-------------------------------------------------------------------------------
                                  24 FLOORS
-------------------------------------------------------------------------------
Artist: The Maine
Song: 24 Floors
Album: American Candy
Tabbed by: Matthew Florio; http://www.facebook.com/smeeplayscheap
E-mail: shempashland@yahoo.com




    

Tuning: Standard

Chords:
F  x33010
Am x02210
G  320010
C  x32010




    

Intro / Verses

Guitar 1
     F                Am               G
e|---0-0-0-0-0-0-0-0--0-0-0-0-0-0-0-0--0-0-0-0-0-0-0-0-----------------------|
B|---1-1-1-1-1-1-1-1--1-1-1-1-1-1-1-1--1-1-1-1-1-1-1-1-----------------------|
G|---0-0-0-0-0-0-0-0--2-2-2-2-2-2-2-2--0-0-0-0-0-0-0-0-----------------------|
D|---3-3-3-3-3-3-3-3--2-2-2-2-2-2-2-2--0-0-0-0-0-0-0-0-----------------------|
A|---3-3-3-3-3-3-3-3--0-0-0-0-0-0-0-0--2-2-2-2-2-2-2-2-----------------------|
E|-------------------------------------3-3-3-3-3-3-3-3-----------------------|
"24 Floors up in some hotel room..."

Guitar 2
e|---1~---------------5~---------------3~------------------------------------|
B|---1~---------------5~---------------3~------------------------------------|
G|---2~---------------5~---------------4~------------------------------------|
D|---3~---------------7~---------------5~------------------------------------|
A|---3~---------------7~---------------5~------------------------------------|
E|---1~---------------5~---------------3~------------------------------------|

Chorus

Guitar 1
     F        C        Am       G
e|---0-0-0-0--0-0-0-0--0-0-0-0--0-0-0-0--------------------------------------|
B|---1-1-1-1--1-1-1-1--1-1-1-1--1-1-1-1--------------------------------------|
G|---0-0-0-0--0-0-0-0--2-2-2-2--0-0-0-0--------------------------------------|
D|---3-3-3-3--2-2-2-2--2-2-2-2--0-0-0-0--------------------------------------|
A|---3-3-3-3--3-3-3-3--0-0-0-0--2-2-2-2--------------------------------------|
E|------------------------------3-3-3-3--------------------------------------|
"you don't wanna die tonight..."

Guitar 2
e|---1-1-1-1--3-3-3-3--5-5-5-5--3-3-3-3--------------------------------------|
B|---1-1-1-1--5-5-5-5--5-5-5-5--3-3-3-3--------------------------------------|
G|---2-2-2-2--5-5-5-5--5-5-5-5--4-4-4-4--------------------------------------|
D|---3-3-3-3--5-5-5-5--7-7-7-7--5-5-5-5--------------------------------------|
A|---3-3-3-3--3-3-3-3--7-7-7-7--5-5-5-5--------------------------------------|
E|---1-1-1-1-----------5-5-5-5--3-3-3-3--------------------------------------|




************************************

| /   slide up
| \   slide down
| h   hammer-on
| p   pull-off
| ~   vibrato
| +   harmonic
| x   Mute note
| b   Bend
| pb  Pre-bend
| br  Bend release
| pbr Pre-bend release
| brb Bend release bend

************************************

View Albums that This Song Appears On...

  • American Candy

    Genre: Pop/Rock Label: Big Picnic Records Song Duration on Album: 3:43 Album Duration: 35:05

    Release Date: March 31, 2015

    Moods: Passionate, Cathartic, Irreverent, Quirky, Uplifting, Urgent, Angst-Ridden, Brash, Bravado, Cheerful, Dramatic, Earnest, Energetic, Extroverted, Nostalgic, Refined, Slick, Stylish, Bittersweet, Confident, Confrontational, Fiery, Rousing, Searching, Crunchy, Freewheeling, Uncompromising, Yearning

    Styles: Alternative/Indie Rock, Punk-Pop, Emo-Pop

    Themes: Cool & Cocky, Freedom, Hanging Out, Reflection, Summer, Heartache

Close panel

Help Rate This Tab by Voting Up or Down

Vote Up Vote Down
Rating: -0 +0

Other Songs Like This

x

Copyright © 2017