Song: Miles Away

Band: The Maine
Composed By: Bobby Bare, Curley Williams, Hedy West

Rating: -0 +0 Views: 149

-------------------------------------------------------------------------------
                                   MILES AWAY
-------------------------------------------------------------------------------
Artist: The Maine
Song: Miles Away
Album: American Candy
Tabbed by: Matthew Florio; http://www.facebook.com/smeeplayscheap
E-mail: shempashland@yahoo.com

Tuning: Standard w/ Capo 2nd Fret



    

Chords:
E 022100
B X24400
A X02200 OR X02220
Amaj X02100
Bmaj X21400
C#m X46600


Intro/Verse



    

     E    C#m  B    A                           
e|---0~---0~---0~---0~-----------------------|
B|---9~---5~---4~---2~-----------------------|
G|---9~---6~---4~---2~-----------------------|
D|-------------------------------------------| (x3)
A|-------------------------------------------|
E|-------------------------------------------|

then this before the Chorus

     E    C#m  B    B                           
e|---0~---0~---0~---0~-----------------------|
B|---9~---5~---4~---4~-----------------------|
G|---9~---6~---4~---4~-----------------------|
D|-------------------------------------------|
A|-------------------------------------------|
E|-------------------------------------------|


Chorus
     A   E   B   C#m  A   E   B   Bmaj  
e|---0-0-0-0-0-0-0-0--0-0-0-0-0-0-0~---------|
B|---0-0-0-0-0-0-0-0--0-0-0-0-0-0-0~---------|
G|---2-2-1-1-4-4-6-6--2-2-1-1-4-4-4~---------|
D|---2-2-2-2-4-4-6-6--2-2-2-2-4-4-1~---------|
A|---0-0-2-2-2-2-4-4--0-0-2-2-2-2-2~---------|
E|-------0-0--------------0-0-----0~---------|

Lead Riff
e|-------------------------------------------|
B|----------------------------------0~-------|
G|------------------------------1---1b-------|
D|--------------------------------2----------|
A|----------------------------0--------------|
E|-------------------------------------------|
"and easy, peaceful..."

     A   E   B   C#m  Amaj  B 
e|---0-0-0-0-0-0-0-0--0-0-0-0----------------|
B|---0-0-0-0-0-0-0-0--0-0-0-0----------------|
G|---2-2-1-1-4-4-6-6--1-1-4-4----------------|
D|---2-2-2-2-4-4-6-6--2-2-4-4----------------|
A|---0-0-2-2-2-2-4-4--0-0-2-2----------------|
E|-------0-0---------------------------------|


Lead Riff
e|------------------------------------|
B|---0~--0~-----0~--0~----------------|
G|---1b--1b-----1b--1b----------------|
D|----------2h4-----------------------|
A|------------------------------------|
E|------------------------------------|
" ...I am miles, miles away"


Verse
     E    C#m  B    A                           
e|---0~---0~---0~---0~-----------------------|
B|---9~---5~---4~---2~-----------------------|
G|---9~---6~---4~---2~-----------------------|
D|-------------------------------------------| 
A|-------------------------------------------|
E|-------------------------------------------|

then this before the Chorus

     E    C#m  B    B                           
e|---0~---0~---0~---0~-----------------------|
B|---9~---5~---4~---4~-----------------------|
G|---9~---6~---4~---4~-----------------------|
D|-------------------------------------------|
A|-------------------------------------------|
E|-------------------------------------------|


Lead Riffs
e|------------------|--------------|--------------|-------------|
B|---7h9~-9~-7~-----|---0~--0~--0~-|--0~--0~--0~--|--000/0~-----|
G|-------------9~---|---9~--8~--4~-|--9~--6~--4~--|--888/9~-----|
D|------------------|--------------|--------------|-------------|
A|------------------|--------------|--------------|-------------|
E|------------------|--------------|--------------|-------------|
"smoking w strangers... lights on... to the angels... X song..."


Chorus
     A   E   B   C#m  A   E   B   Bmaj  
e|---0-0-0-0-0-0-0-0--0-0-0-0-0-0-0~---------|
B|---0-0-0-0-0-0-0-0--0-0-0-0-0-0-0~---------|
G|---2-2-1-1-4-4-6-6--2-2-1-1-4-4-4~---------|
D|---2-2-2-2-4-4-6-6--2-2-2-2-4-4-1~---------|
A|---0-0-2-2-2-2-4-4--0-0-2-2-2-2-2~---------|
E|-------0-0--------------0-0-----0~---------|


Lead Riff
e|-------------------------------------------|
B|----------------------------------0~-------|
G|------------------------------1---1b-------|
D|--------------------------------2----------|
A|----------------------------0--------------|
E|-------------------------------------------|
"and easy, peaceful..."

     A   E   B   C#m  Amaj  B 
e|---0-0-0-0-0-0-0-0--0-0-0-0----------------|
B|---0-0-0-0-0-0-0-0--0-0-0-0----------------|
G|---2-2-1-1-4-4-6-6--1-1-4-4----------------|
D|---2-2-2-2-4-4-6-6--2-2-4-4----------------|
A|---0-0-2-2-2-2-4-4--0-0-2-2----------------|
E|-------0-0---------------------------------|


Lead Riff
e|------------------------------------|
B|---0~--0~-----0~--0~----------------|
G|---1b--1b-----1b--1b----------------|
D|----------2h4-----------------------|
A|------------------------------------|
E|------------------------------------|
" ...I am miles, miles away"

Bridge
e|---0-0-0-0-0-0-0-0-0-0-0-0--0-0-0-0-0-0-0-0-0-0-0-0-----------|
B|---0-0-0-0-0-0-0-0-0-0-0-0--0-0-0-0-0-0-0-0-0-0-0-0-----------|
G|---2-2-2-2-1-1-1-1-4-4-4-4--2-2-2-2-1-1-1-1-4-4-4-4-----------|
D|---2-2-2-2-2-2-2-2-4-4-4-4--2-2-2-2-2-2-2-2-4-4-4-1-----------|
A|---0-0-0-0-2-2-2-2-2-2-2-2--0-0-0-0-2-2-2-2-2-2-2-2-----------|
E|-----------0-0-0-0------------------0-0-0-0-------------------|

[02:12 - 02:23]
e|---0-0-0-0-0-0-0-0-0-0-0-0-0-0-0-0--0-0-0-0-0-0-0-0-0-0-0-0---|
B|---0-0-0-0-0-0-0-0-0-0-0-0-0-0-0-0--0-0-0-0-0-0-0-0-0-0-0-0---|
G|---2-2-2-2-1-1-1-1-4-4-4-4-6-6-6-6--2-2-2-2-1-1-1-1-4-4-4-4---|
D|---2-2-2-2-2-2-2-2-4-4-4-4-6-6-6-6--2-2-2-2-2-2-2-2-4-4-4-4---|
A|---0-0-0-0-2-2-2-2-2-2-2-2-4-4-4-4--0-0-0-0-2-2-2-2-2-2-2-2---|
E|-----------0-0-0-0--------------------------0-0-0-0-----------|
"MILES AWAY..."


Lead
[2:00]
e|--------------------------------------------------------------|
B|--------------------------------------------------------------|
G|---6-4--------6-4-----------------6-4-------------------------|
D|------7-6~-------7-6~--4h6p4h6p4-----7-6~--6h9\4~----7-7p6~---|
A|----------7---------------------7------------------/7---------|
E|--------------------------------------------------------------|

[02:18] 
e|-------------------------------------------|
B|-------------------------------------------|
G|---6-4-------------------------------------|
D|------7-6~--6h7\4~-5b*---------------------|
A|-------------------------------------------|
E|-------------------------------------------|
NOTE: *bend note enough that it sounds a 1/2 step above 
(ie:5th fret bend fully to sound like 6th fret then slowly release bend to sound like 5th fret again)

Interlude
e|---0~---0~---0~---0~---0~---0~-------------|
B|---5~---2~---4~---5~---2~---4~-------------|
G|---6~---2~---4~---6~---2~---4~-------------|
D|----~--------------------------------------|
A|----~--------------------------------------|
E|-------------------------------------------|
"when the buzz..."

Lead
e|------------------------------------------------------------|
B|-----------------------------------5------5----5------------|
G|----1b~------4p1b~---4p1b~----------4------4----4-----1-1b--|
D|---2---4~---2-------2-----4~---6-7---6~-6~--6-6~-6~--2------|
A|------------------------------------------------------------|
E|------------------------------------------------------------|
    [2:35]    [2:38]  [2:43]    [2:48]

   
Chorus 
     A   E   B   C#m  A   E   B   Bmaj  
e|---0-0-0-0-0-0-0-0--0-0-0-0-0-0-0~---------|
B|---0-0-0-0-0-0-0-0--0-0-0-0-0-0-0~---------|
G|---2-2-1-1-4-4-6-6--2-2-1-1-4-4-4~---------|
D|---2-2-2-2-4-4-6-6--2-2-2-2-4-4-1~---------|
A|---0-0-2-2-2-2-4-4--0-0-2-2-2-2-2~---------|
E|-------0-0--------------0-0-----0~---------|


Lead Riff
e|-------------------------------------------|
B|----------------------------------0~-------|
G|------------------------------1---1b-------|
D|--------------------------------2----------|
A|----------------------------0--------------|
E|-------------------------------------------|
"and easy, peaceful..."

     A   E   B   C#m  Amaj  B 
e|---0-0-0-0-0-0-0-0--0-0-0-0----------------|
B|---0-0-0-0-0-0-0-0--0-0-0-0----------------|
G|---2-2-1-1-4-4-6-6--1-1-4-4----------------|
D|---2-2-2-2-4-4-6-6--2-2-4-4----------------|
A|---0-0-2-2-2-2-4-4--0-0-2-2----------------|
E|-------0-0---------------------------------|


Lead Riff
e|------------------------------------|
B|---0~--0~-----0~--0~----------------|
G|---1b--1b-----1b--1b----------------|
D|----------2h4-----------------------|
A|------------------------------------|
E|------------------------------------|
" ...I am miles, miles away"


Outro
     A   E   B   C#m  Amaj  B 
e|---0-0-0-0-0-0-0-0--0-0-0-0----------------|
B|---0-0-0-0-0-0-0-0--0-0-0-0----------------|
G|---2-2-1-1-4-4-6-6--1-1-4-4----------------|
D|---2-2-2-2-4-4-6-6--2-2-4-4----------------|
A|---0-0-2-2-2-2-4-4--0-0-2-2----------------|
E|-------0-0---------------------------------|

Lead Riff
e|------------------------------------|
B|---0~--0~-----0~--0~---0-0-0-0~-----|
G|---1b--1b-----1b--1b---1h2-2p1~-----|
D|----------2h4-----------------------|
A|------------------------------------|
E|------------------------------------|
" ...I am miles, miles away"


************************************

| /   slide up
| \   slide down
| h   hammer-on
| p   pull-off
| ~   vibrato
| +   harmonic
| x   Mute note
| b   Bend
| pb  Pre-bend
| br  Bend release
| pbr Pre-bend release
| brb Bend release bend

************************************

View Albums that This Song Appears On...

  • American Candy

    Genre: Pop/Rock Label: Big Picnic Records Song Duration on Album: 3:37 Album Duration: 35:05

    Release Date: March 31, 2015

    Moods: Passionate, Cathartic, Irreverent, Quirky, Uplifting, Urgent, Angst-Ridden, Brash, Bravado, Cheerful, Dramatic, Earnest, Energetic, Extroverted, Nostalgic, Refined, Slick, Stylish, Bittersweet, Confident, Confrontational, Fiery, Rousing, Searching, Crunchy, Freewheeling, Uncompromising, Yearning

    Styles: Alternative/Indie Rock, Punk-Pop, Emo-Pop

    Themes: Cool & Cocky, Freedom, Hanging Out, Reflection, Summer, Heartache

Close panel

Help Rate This Tab by Voting Up or Down

Vote Up Vote Down
Rating: -0 +0

Other Songs Like This

x

Copyright © 2017