Song: By The Way

Band: Theory Of A Deadman

Rating: -1 +1 Views: 186


    

																				-------------------------------------------------------------------------------
			     Theory Of A Deadman - By The Way
-------------------------------------------------------------------------------
Tabbed by:Pete Griffin

Tuning: Eb Ab Db Gb Bb eb (1/2 step down)

This is just my interpretation of this new Theory of a Deadman song.
I've tabbed what i feel to be the most prominant parts, allowing one 
guitarist to play along with the cd.  Have fun, and please rate and 
comment if you liked it!!!.



    


Intro 0.00

e|----------------------------------------------------------|
B|----------------------------------------------------------|
G|----------------------------------------------------------|
D|----------------------------------------------------------|
A|-0h2-2-2-2-2-2h3-3-3-3-3-3p2-2-2-0h2-0-0-0-0-0------------|
E|-0---0-0-0-0-0---0-0-0-0-0---0-0-0---0-0-0-0-0------------|

e|----------------------------------------------------------|
B|----------------------------------------------------------|
G|----------------------------------------------------------|
D|----------------------------------------------------------|
A|-0h2-2-2-2-2-2h3-3-3-3-3-3p2-2-2-0h2-0--------------------|
E|-0---0-0-0-0-0---0-0-0-0-0---0-0-0---0--------------------|

Lead intro 0.10
e|----------------------------------------------------------|
B|----------------------------------------------------------|
G|----------------------------------------------------------|
D|-7/9-9-9-9-9-9h10-10-10-10-10-10p9-9-9-9-9-7-7-7-7-7------|
A|----------------------------------------------------------|
E|----------------------------------------------------------|

e|----------------------------------------------------------|
B|----------------------------------------------------------|
G|----------------------------------------------------------|
D|-7/9-9-9-9-9-9h10-10-10-10-10-10p9-9-9-9-9-7--5p4---------|
A|--------------------------------------------------7-------|
E|----------------------------------------------------------|


Verse 0.21

e|-0-0-0-0---2-2-2-2---0-0-0-0---0-0-0-0--------------------|
B|-0-0-0-0---3-3-3-3---1-1-1-1---1-1-1-1--------------------|
G|-0-0-0-0---2-2-2-2---2-2-2-2---0-0-0-0--------------------|
D|-2-2-2-2---0-0-0-0---2-2-2-2---2-2-2-2--------------------|
A|-2-2-2-2-------------0-0-0-0---3-3-3-3--------------------|
E|-0-0-0-0--------------------------------2br2--3-2---------|


e|-0-0-0-0---2-2-2-2----------------------------------------|
B|-0-0-0-0---3-3-3-3---0-0-0--0--0--0---0--0--0---0---------|
G|-0-0-0-0---2-2-2-2---9-9-9--11-11-11--12-12-12--14--------|
D|-2-2-2-2---0-0-0-0---9-9-9--11-11-11--12-12-12--14--------|
A|-2-2-2-2-------------7-7-7--9--9--9---10-10-10--12--------|
E|-0-0-0-0--------------------------------------------------|


Pre-chorus 0.59

e|----------------------------------------------------------|
B|----------------------------------------------------------|
G|----------------------------------------------------------|
D|-9-9-9--11-11-11-12-12-12--14-----------------------------|
A|-7-7-7--9--9--9--10-10-10--12-----------------------------|
E|----------------------------------------------------------|


Chorus 1.04

e|------0-0-------0-0---------------------------------------|
B|------3-3-------3-3---------------------------------------|
G|------2-2--2-2--2-2--5-5----------------------------------|
D|-2-2--0-0--0-0--0-0--5-5----------------------------------|
A|-2-2-----------------3-3----------------------------------|
E|-0-0------------------------------------------------------|
           pm...


Bridge 2.11

e|----------------------------------------------------------|
B|----------------------------------------------------------|
G|-------------5-5-/7-7-/9-9--11----------------------------|
D|----------7--5-5--x-x--x-x--x-----------------------------|
A|-2--4--5--5--3-3-/5-5-/7-7--9---2-2--2-2--2-2--2-2--------|
E|-0--2--3------------------------0-0--0-0--0-0--0-0--------|


outro chorus 3.02

e|----------------------------------------------------------|
B|-------------------3-3-3-3--------------------------------|
G|-------------------2-2-2-2--5-5-5-5-----------------------|
D|----------4-4-4-4--0-0-0-0--5-5-5-5-----------------------|
A|-2-2-2-2--2-2-2-2-----------3-3-3-3-----------------------|
E|-0-0-0-0--------------------------------------------------|

e|----------------------------------------------------------|
B|-----------3-3-------3-3----------------------------------|
G|-----------2-2--2-2--2-2----------------------------------|
D|-----------0-0--0-0--0-0--5-5-------------7--5------------|
A|-2-2-2-2------------------3-3----2--4--5--5--3------------|
E|-0-0-0-0-------------------------0--2--3------------------|
                 pm.. 


outro solo 3.24

e|-12----12--------12---------------------------------------|
B|----15----15b17-----15-----12-15--------------------------|
G|-----------------------14b-------14b16r14p12----12--------|
D|---------------------------------------------14-----------|
A|----------------------------------------------------------|
E|----------------------------------------------------------|


e|-----------------------------12--12--12--12--12--12--12---|
B|-----------------------------15b-15b-15b-15b-15b-15b-15b--|
G|-12p9-----12p9--------------------------------------------|
D|------12-------12-----------------------------------------|
A|------------------12\10-10b-------------------------------|
E|----------------------------------------------------------|


Order:

Intro
Lead intro
Verse x2
Pre-chorus
Chorus x2
Lead intro
Verse
Pre-chorus
Chorus x2
Bridge x3
Pre-chorus
Chorus
Outro chorus
Outro Solo


| /  slide up
| \  slide down
| h  hammer-on
| p  pull-off
| ~  vibrato
| +  harmonic
| x  Mute note


Please rate and comment!!!
===============================================================================

Help Rate This Tab by Voting Up or Down

Vote Up Vote Down
Rating: -1 +1

Other Songs Like This

Latest Sheets, Music, Lyrics and Tabs

Latest Discussion about a Sheet, Song, Lyric or Tab

x

Copyright © 2015