Song: Human Race

Band: Three Days Grace
Composed By: Gavin "Golden" Brown, Three Days Grace

Rating: -0 +0 Views: 33

-------------------------------------------------------------------------------
                             Human Race - Three Days Grace
-------------------------------------------------------------------------------
Tabbed by: EliasGarciarena
For suggestions please e-mail me at: elias.garciarena@gmail.com

I keep working in the solo yet, but I will try to update this the most quickly possible,
apart of the solo, everything is here, enjoy and greetings from Argentina!



    

Tuning: Drop D ( D A D G B e )

00:13

e|-----------------------------------------------------------------------------|
B|-----------------------------------------------------------------------------|
G|-----------------------------------------------------------------------------|
D|-5~~-8~~-3~~-1~~----5~~-8~~-3~~-7~~------------------------------------------|
A|-5~~-8~~-3~~-1~~----5~~-8~~-3~~-7~~------------------------------------------|
D|-5~~-8~~-3~~-1~~----5~~-8~~-3~~-7~~------------------------------------------|



    

00:40

e|-----------------------------------------------------------------------------|
B|-----------------------------------------------------------------------------|
G|-----------------------------------------------------------------------------|
D|-0-0--0-0-0~-3-0-0--0-0-0-0-5-10--10-10--5-5--5-5-10-8p7---------------------|
A|-0-0--0-0-0~-3-0-0--0-0-0-0-5--8---8--8--5-5--5-5-10-8p7---------------------|
D|-0-0--0-0-0~-3-0-0--0-0-0-0-5--8---8--8--5-5--5-5-10-8p7---------------------|

e|-----------------------------------------------------------------------------|
B|-----------------------------------------------------------------------------|
G|-----------------------------------------------------------------------------|
D|-0-0--0-0-0~-3-0-0--0-0-0-0-5-10--10-10--5-5--5\-----------------------------|
A|-0-0--0-0-0~-3-0-0--0-0-0-0-5--8---8--8--5-5--5\-----------------------------|
D|-0-0--0-0-0~-3-0-0--0-0-0-0-5--8---8--8--5-5--5\-----------------------------|

01:07

e|-----------------------------------------------------------------------------|
B|-----------------------------------------------------------------------------|
G|-----------------------------------------------------------------------------|
D|-5-7-0-0-0-0-0-0-10-8p7-0-0-0-2--3--5--8-8-8-8-8-8-10-8p7-5-5-5-5-5-5-10-8p7-|
A|-5-7-0-0-0-0-0-0-10-8p7-0-0-0-2--3--5--8-8-8-8-8-8-10-8p7-5-5-5-5-5-5-10-8p7-|
D|-5-7-0-0-0-0-0-0-10-8p7-0-0-0-2--3--5--8-8-8-8-8-8-10-8p7-5-5-5-5-5-5-10-8p7-|

e|-----------------------------------------------------------------------------|
B|-----------------------------------------------------------------------------|
G|-----------------------------------------------------------------------------|
D|-0-0--0-0-0~-3-0-0--0-0-0-0-5-10--10-10--5-5--5-5-10-8p7---------------------|
A|-0-0--0-0-0~-3-0-0--0-0-0-0-5--8---8--8--5-5--5-5-10-8p7---------------------|
D|-0-0--0-0-0~-3-0-0--0-0-0-0-5--8---8--8--5-5--5-5-10-8p7---------------------|

e|-----------------------------------------------------------------------------|
B|-----------------------------------------------------------------------------|
G|-----------------------------------------------------------------------------|
D|-0-0--0-0-0~-3-0-0--0-0-0-0-5-10--10-10--------------------------------------|
A|-0-0--0-0-0~-3-0-0--0-0-0-0-5--8---8--8--------------------------------------|
D|-0-0--0-0-0~-3-0-0--0-0-0-0-5--8---8--8--------------------------------------|

e|-----------------------------------------------------------------------------|
B|-----------------------------------------------------------------------------|
G|-----------------------------------------------------------------------------|
D|-5~~-8~~-3~~-1~~----5~~-8~~-3~~-7~~------------------------------------------|
A|-5~~-8~~-3~~-1~~----5~~-8~~-3~~-7~~------------------------------------------|
D|-5~~-8~~-3~~-1~~----5~~-8~~-3~~-7~~------------------------------------------|

02:11

e|-----------------------------------------------------------------------------|
B|-----------------------------------------------------------------------------|
G|-----------------------------------------------------------------------------|
D|-0-0--0-0-0~-3-0-0--2--3--5--8-8-8-8-8-8-10-8p7-5-5-5-5-5-5-10-8p7-----------|
A|-0-0--0-0-0~-3-0-0--2--3--5--8-8-8-8-8-8-10-8p7-5-5-5-5-5-5-10-8p7-----------|
D|-0-0--0-0-0~-3-0-0--2--3--5--8-8-8-8-8-8-10-8p7-5-5-5-5-5-5-10-8p7-----------|

e|-----------------------------------------------------------------------------|
B|-----------------------------------------------------------------------------|
G|-----------------------------------------------------------------------------|
D|-5~~-8~~-3~~-1~~----5~~-8~~-3~~-7~~------------------------------------------|
A|-5~~-8~~-3~~-1~~----5~~-8~~-3~~-7~~------------------------------------------|
D|-5~~-8~~-3~~-1~~----5~~-8~~-3~~-7~~------------------------------------------|

02:52  (part behind the solo)

e|-----------------------------------------------------------------------------|
B|-----------------------------------------------------------------------------|
G|-----------------------------------------------------------------------------|
D|-5~~-8~~-3~~-1~~----5~~-8~~-3~~-7~~------------------------------------------|
A|-5~~-8~~-3~~-1~~----5~~-8~~-3~~-7~~------------------------------------------|
D|-5~~-8~~-3~~-1~~----5~~-8~~-3~~-7~~------------------------------------------|

03:47

e|-----------------------------------------------------------------------------|
B|-----------------------------------------------------------------------------|
G|-----------------------------------------------------------------------------|
D|-5~~-8~~-3~~-1~~----5~~-8~~-3~~----------------------------------------------|
A|-5~~-8~~-3~~-1~~----5~~-8~~-3~~----------------------------------------------|
D|-5~~-8~~-3~~-1~~----5~~-8~~-3~~----------------------------------------------|

************************************
| /   slide up
| \   slide down
| p   pull-off
| ~   vibrato
************************************

View Just Lyrics...

I don't belong here
Not in this atmosphere
Goodbye, goodbye, goodbye
I don't belong here
Not in this atmosphere
Goodbye, goodbye, goodbye

Started with a kick and a punch
A claw to the face
And I was in the race
I was in the race
Yeah
yeah

You know it's hard sometimes
Being humankind
Keeping up with the pace
Keeping up with the pace
Yeah
yeah

I'm sick of running
Sick of running
Sick of running
The human race
The human race

If it's an eye for an eye
Then we all go blind
Is it hard to see?
Is it hard to see?
Yeah
yeah

So far behind
No finish line
It can happen to you
It can happen to me
Yeah

I don't belong here
Not in this atmosphere
Goodbye, goodbye, goodbye
I don't belong here
Not in this atmosphere
Goodbye, goodbye, goodbye

Started with a kick and a punch
A claw to the face
And I was in the race
I was in the race
Yeah

The human race
I'm sick of running
Sick of running
Sick of running
The human race
The human race

I don't belong here
Not in this atmosphere
Goodbye, goodbye, goodbye

I don't belong here
Not in this atmosphere
I don't belong here
Not in this atmosphere
Goodbye, goodbye, goodbye

View Albums that This Song Appears On...

  • Human

    Genre: Pop/Rock Label: RCA Song Duration on Album: 4:09 Album Duration: 39:29

    Release Date: March 31, 2015

    Moods: Brooding, Aggressive, Angst-Ridden, Cathartic, Confrontational, Dramatic, Fiery, Tense/Anxious, Visceral, Angry, Energetic, Harsh, Intense, Regretful, Urgent, Volatile, Cynical/Sarcastic, Melancholy, Tragic

    Styles: Alternative Metal, Heavy Metal

    Themes: Loss/Grief, Hanging Out, Drugs, Tragedy

Close panel

Help Rate This Tab by Voting Up or Down

Vote Up Vote Down
Rating: -0 +0

Other Songs Like This

x

Copyright © 2017