Song: Equinox Of The Gods

Band: Tiamat
Composed By: Johan Edlund

Rating: -0 +0 Views: 87



    

																				Song: Equinox of the Gods

Tuning is standard; e, b ,g ,d, a, E

Intro



    

Guitar 1:
E|----------------------------------|----------------------------------|
B|----------------------------------|----------------------------------|
G|----------------------------------|----------------------------------|
D|--6-6-6-6-8-8-9-9-9-9-8-8-6-6-6-6-|--7-7-7-7-7-7-7-7-----------------|
A|----------------------------------|------------------6-6-6-6-6-6-6-6-|
E|----------------------------------|----------------------------------|


|----------------------------------|----------------------------------|
|----------------------------------|----------------------------------|
|----------------------------------|--7-7-7-7-7-7-7-7-8-8-8-8-8-8-8-8-|
|--6-6-6-6-8-8-9-9-9-9-8-8-6-6-6-6-|----------------------------------|
|----------------------------------|----------------------------------|
|----------------------------------|----------------------------------|

Repeat this 2 times, when the second time starts guitar 2 plays

Guitar 2:
|------------------------|------------------------|
|------------------------|------------------------|
|------------------------|------------------------|
|--6----6--6--6----6--6--|--7----7--7--6----6--6--|
|--6----6--6--6----6--6--|--7----7--7--6----6--6--|
|--4----4--4--4----4--4--|--5----5--5--4----4--4--|

|--------------------------|--------------------------|
|--------------------------|--------------------------|
|--------------------------|--------------------------|
|--6--6--6--6--6--6--6--6--|--6--6--6--6--6--6--6--6--|
|--6--6--6--6--6--6--6--6--|--6--6--6--6--6--6--6--6--|
|--4--4--4--4--4--4--4--4--|--4--4--4--4--4--4--4--4--|


Part 1


|--------------------------|--------------------------|
|--------------------------|--------------------------|
|--------------------------|--------------------------|
|--------------------------|--------------------------|
|--6--6--6--6--6--6--6--6--|--6--6--6--6--6--6--6--6--|
|--4--4--4--4--4--4--4--4--|--4--4--4--4--4--4--4--4--|

|--------------------------|--------------------------|
|--------------------------|--------------------------|
|--------------------------|--------------------------|
|--------------------------|--------------------------|
|--7--7--7--7--7--7--7--7--|--7--7--7--7--7--7--7--7--|
|--5--5--5--5--5--5--5--5--|--5--5--5--5--5--5--5--5--|

Repeat 2 times...

Part 2


|--------------------|--------------------|
|--------------------|--------------------|
|--------------------|--------------------|
|--10-------9--------|--6--------7--------|
|--10-------9--------|--6--------7--------|
|--8--------7--------|--4--------5--------|

Repeat 2 times

At the end of the part 2 when Johan sings

View Albums that This Song Appears On...

  • Amanethes

    Genre: Pop/Rock Label: Nuclear Blast Song Duration on Album: 4:35 Album Duration: 01:06:56

    Release Date: May 27, 2008

    Moods: Angst-Ridden, Eerie, Hostile, Bitter, Menacing, Bleak, Malevolent, Ominous, Paranoid, Tense/Anxious, Theatrical, Angry, Nihilistic, Volatile, Aggressive, Brooding, Gloomy, Harsh

    Styles: Heavy Metal, Scandinavian Metal, Death Metal, Symphonic Black Metal, Goth Metal, Progressive Metal

    Themes: Loss/Grief, Regret, Scary Music

  • Gothic File, Vol. 4

    Genre: Pop/Rock Label: Gothic Records Song Duration on Album: 4:34 Album Duration: 01:16:23

    Release Date: 2008

Close panel

Help Rate This Tab by Voting Up or Down

Vote Up Vote Down
Rating: -0 +0

Other Songs Like This

x

Copyright © 2017