Song: Slow Motion

Band: Trey Songz

Rating: -0 +0 Views: 74

-------------------------------------------------------------------------------
                             SLOW MOTION - Trey Songz
-------------------------------------------------------------------------------
Tabbed by: its_tee
E-mail: tyler.palupe@hotmail.com

Tuning: EADGBe



    

Play for whole song 
e|----------------------------------------------------------------------|
B|--6----1--3-----------1--3-----------6----1--3-----------1------------|
G|-----------------2----------------------------------2-------3---------|
D|----------------------------------------------------------------------|
A|--5----0--1-----------0--1-----------5----0--1-----------0------------|
E|-----------------1----------------------------------1-------3---------|


For the chorus, you can play these chords:



    

[Pre-Hook 1]
Baby, I just wanna get you out them clothes
I just wanna see you dance in

[Hook]
     Dm  Am Bb   F   Am Bb 
Slow motion
       Dm                 Am              Bb    F   Am Gm
We can take, we can take, we can take our time, baby
        Dm  Am Bb    F   Am Bb
In slow motion
       Dm                 Am              Bb    F       Am
We can take, we can take, we can take our time, stay here
   Gm   Dm
In slow motion


************************************

| /   slide up
| \   slide down
| h   hammer-on
| p   pull-off
| ~   vibrato
| +   harmonic
| x   Mute note
| b   Bend
| pb  Pre-bend
| br  Bend release
| pbr Pre-bend release
| brb Bend release bend

************************************

Close panel

Help Rate This Tab by Voting Up or Down

Vote Up Vote Down
Rating: -0 +0

Other Songs Like This

x

Copyright © 2017