Song: Un Po Esageri

Band: Verdena
Composed By: Tomás Bretón

Rating: -0 +0 Views: 32

-------------------------------------------------------------------------------
                             un po' esageri - Verdena
-------------------------------------------------------------------------------
Tabbed by:alva81
E-mail:

Tuning: standard



    

intro clean 0:00/0:06
e|---------------------------------------------------------------------------|
B|---------------------------------------------------------------------------|
G|---------------------7-7-7-9-9-9-------------------------------------------|
D|-7-7-7-7-7-7--7-7-7--7-7-7-9-9-9-------------------------------------------|
A|-7-7-9-7-9-7--7-7-7--5-5-5-7-7-7-------------------------------------------|
E|-5-5-5-5-5-5--5-5-5--------------------------------------------------------|
intro dist 0:07/0:13
e|---------------------------------------------------------------------------|
B|---------------------------------------------------------------------------|
G|---------------------------------------------------------------------------| x2
D|-7-7-7-7-7-7--7-7-7--4-4-4--2-2-2------------------------------------------|
A|-7-7-9-7-9-7--7-7-7--4-4-4--2-2-2------------------------------------------|
E|-5-5-5-5-5-5--5-5-5--2-2-2--0-0-0------------------------------------------|
           0:14/0:17
e|---------------------------------------------------------------------------|
B|---------------------------------------------------------------------------|
G|---------------------7-7-7-9-9-9-------------------------------------------|x1
D|-7-7-7-7-7-7--7-7-7--7-7-7-9-9-9-------------------------------------------|
A|-7-7-9-7-9-7--7-7-7--5-5-5-7-7-7-------------------------------------------|
E|-5-5-5-5-5-5--5-5-5--------------------------------------------------------|
           0:18/0:45
e|---------------------------------------------------------------------------|
B|---------------------------------------------------------------------------|
G|---------------------------------------------------------------------------|
D|-7-7-7-7-7-7--7-7-7--4-4-4--2-2-2------------------------------------------|
A|-7-7-9-7-9-7--7-7-7--4-4-4--2-2-2------------------------------------------|
E|-5-5-5-5-5-5--5-5-5--2-2-2--0-0-0------------------------------------------|
           0:46/1:00
e|---------------------------------------------------------------------------|
B|---------------------------------------------------------------------------|
G|-14--14--14--14--14--14--14------------------------------------------------|
D|---------------------------------------------------------------------------|
A|-12--12--12--12--12--12--12------------------------------------------------|
E|---------------------------------------------------------------------------|
           1:00/1:28
e|---------------------------------------------------------------------------|
B|---------------------------------------------------------------------------|
G|---------------------------------------------------------------------------|
D|-7-7-7-7-7-7--7-7-7--4-4-4--2-2-2------------------------------------------|
A|-7-7-9-7-9-7--7-7-7--4-4-4--2-2-2------------------------------------------|
E|-5-5-5-5-5-5--5-5-5--2-2-2--0-0-0------------------------------------------|
           1:28/1:42
e|---------------------------------------------------------------------------|
B|---------------------------------------------------------------------------|
G|-14--14--14--14--14--14--14------------------------------------------------|
D|---------------------------------------------------------------------------|
A|-12--12--12--12--12--12--12------------------------------------------------|
E|---------------------------------------------------------------------------|
            1:42/2:10
e|----------------------------------------------------------------------------|
B|----------------------------------------------------------------------------|
G|---------9-9-9-9-7-7-7-7-11-11-11-11----------------------------------------|
D|-9-9-9-9-9-9-9-9-7-7-7-7-11-11-11-11----------------------------------------|
A|-9-9-9-9-7-7-7-7-5-5-5-5-9--9--9--9-----------------------------------------|
E|-7-7-7-7--------------------------------------------------------------------| 2:10/2:24

e|----------------------------------------------------------------------------|
B|----------------------------------------------------------------------------|
G|----------------------------------------------------------------------------|
D|-7-7-7-7-7-7--7-7-7--4-4-4--2-2-2-------------------------------------------|
A|-7-7-7-7-7-7--7-7-7--4-4-4--2-2-2-------------------------------------------|
E|-5-5-5-5-5-5--5-5-5--2-2-2--0-0-0-------------------------------------------|
             2:24/2:38
e|---------------------------------------------------------------------------|
B|---------------------------------------------------------------------------|
G|--13-13-13-13-14-14-14-14-18-18-18-18-16-16-16-16--------------------------|
D|---------------------------------------------------------------------------|
A|---------------------------------------------------------------------------|
E|---------------------------------------------------------------------------|
             2:38/3:00
e|---------------------------------------------------------------------------|
B|---------------------------------------------------------------------------|
G|-9--9--9--9--9--9--9--9--9--9--9-------------------------------------------|
D|---------------------------------------------------------------------------|
A|-7--7--7--7--7--7--7--7--7--7--7-------------------------------------------|
E|---------------------------------------------------------------------------|
            3:00/3:18
e|---------------------------------------------------------------------------|
B|---------------------------------------------------------------------------|
G|---------9-9-9-9-7-7-7-7-11-11-11-11---------------------------------------|
D|-9-9-9-9-9-9-9-9-7-7-7-7-11-11-11-11---------------------------------------|
A|-9-9-9-9-7-7-7-7-5-5-5-5-9--9--9--9----------------------------------------|
E|-7-7-7-7-------------------------------------------------------------------|
 end         3:18/3:39
e|---------------------------------------------------------------------------|
B|---------------------------------------------------------------------------|
G|-7-7-7-7-------------------------------------------------------------------|
D|-7-7-7-7-7~----------------------------------------------------------------|
A|-5-5-5-5-7~----------------------------------------------------------------|
E|---------5~----------------------------------------------------------------|




    

************************************

| /   slide up
| \   slide down
| h   hammer-on
| p   pull-off
| ~   vibrato
| +   harmonic
| x   Mute note
| b   Bend
| pb  Pre-bend
| br  Bend release
| pbr Pre-bend release
| brb Bend release bend

************************************

View Albums that This Song Appears On...

  • Endkadenz, Vol. 1

    Genre: Pop/Rock Label: Universal Song Duration on Album: 3:35 Album Duration: 59:12

    Release Date: January 27, 2015

  • Un Po' Esageri

    Label: Universal Song Duration on Album: 3:35

Close panel

Help Rate This Tab by Voting Up or Down

Vote Up Vote Down
Rating: -0 +0

Other Songs Like This

x

Copyright © 2017