Song: Continental Shelf

Band: Viet Cong
Composed By: Stanley Cowell

Rating: -0 +0 Views: 143

Viet Cong - Continental Shelf
Track 5 from the album "Viet Cong" (Jagjaguwar 2015).

Tabbed by Isaac Murguia, February 2015.
Originally uploaded to Ultimate-Guitar.com
Contact: www.youtube.com/user/Goadiroth



    

/ = slide up
" = tremolo picking
b = bend
r = release bend
() = the note you're supposed to bend to when bending

CHORUS 1:
  Guitar 1
e|-----------------------------------|
B|-10--10--10-8-7----8-7-----8-7-----|
G|----------------9------9-7-----9---|
D|---------------------------------9-|
A|-----------------------------------|
E|-----------------------------------| [x4]
  Guitar 2
e|-----------------------------------|
B|-----------------------------------|
G|--------0--------------------------|
D|-----------------------------------|
A|-----------------------------------|
E|-3-3-3-----3-3/7--7-7--7/12--12-12-| [x4]

VERSE 1:
           [x2]
e|------------------------|----------------------------|
B|------------------------|-10"-8"-10"-8"--8"-7"-7"-5"-| guitar 1 continues this
G|-5--5--7--7--5--5--7--7-|----------------------------| while gtr 2 moves to the next part
D|-5--5--7--7--5--5--7--7-|----------------------------|
A|-7--7--5--5--7--7--5--5-|----------------------------|
E|------------------------|----------------------------| [x2]



    

           [x2]
e|------------------------|---------------------------------|
B|------------------------|-13"-12"-13"-12"--12"-10"-10"-8"-|
G|-5--5--7--7--5--5--7--7-|---------------------------------|
D|-5--5--7--7--5--5--7--7-|---------------------------------|
A|-7--7--5--5--7--7--5--5-|---------------------------------|
E|------------------------|---------------------------------| [x2]

PRE-CHORUS:
e|-------------------------------------------|
B|-12b(13)r---12b(13)r---12b(13)r---12b(13)r-|
G|-------------------------------------------|
D|-------------------------------------------|
A|-------------------------------------------|
E|-------------------------------------------|

CHORUS 2:
  Guitar 1
e|-----------------------------------|
B|-10--10--10-8-7----8-7-----8-7-----|
G|----------------9------9-7-----9---|
D|---------------------------------9-|
A|-----------------------------------|
E|-----------------------------------| [x4]
  Guitar 2      [x3]
e|-----------------------------------|-----------------------------------|
B|-----------------------------------|-----------------------------------|
G|--------0--------------------------|--------0-----------------------0--|
D|-----------------------------------|-----------------------------------|
A|-----------------------------------|-----------------------------------|
E|-3-3-3-----3-3/7--7-7--7/12--12-12-|-3-3-3-----3-3/7--7-7--7/12--12----|

VERSE 2:
  Guitar 1
e|----------------------------|
B|-10"-8"-10"-8"--8"-7"-7"-5"-|
G|----------------------------|
D|----------------------------|
A|----------------------------|
E|----------------------------| [x3]
  Guitar 2                                    [x2]
e|----------------------------|---------------------------------|
B|-10"-8"-10"-8"--8"-7"-7"-5"-|-13"-12"-13"-12"--12"-10"-10"-8"-|
G|----------------------------|---------------------------------|
D|----------------------------|---------------------------------|
A|----------------------------|---------------------------------|
E|----------------------------|---------------------------------|

Repeat PRE-CHORUS
Repeat CHORUS 2

End. Please rate! :D

View Albums that This Song Appears On...

  • Viet Cong

    Genre: Pop/Rock Label: Jagjaguwar Album Duration: 37:02

    Release Date: January 20, 2015

    Moods: Nervous/Jittery, Urgent, Angular, Enigmatic, Literate, Tense/Anxious, Theatrical, Cerebral, Earnest, Intense, Sophisticated, Atmospheric, Detached, Fractured, Satirical, Street-Smart, Brooding

    Styles: Alternative/Indie Rock, Indie Pop, Noise Pop, Lo-Fi

    Themes: Late Night, Freedom, Cool & Cocky, The Creative Side, Revolutionary

Close panel

Help Rate This Tab by Voting Up or Down

Vote Up Vote Down
Rating: -0 +0

Other Songs Like This

x

Copyright © 2017