Song: Ella Es Azul

Band: Volovan

Rating: -1 +1 Views: 128



    

																				Intro:
---------------------------------------------------------------------------|
---------------------------------------------------------------------------|
---------------------------------------------------------------------------|
--10-10-10-10-10-10-10-10--9-9-9-9--7-7-7-7--------------------------------|
--8--8--8--8--8--8--8--8--7-7-7-7--5-5-5-5--5-5-5-5-5-5-5-5-5-5-5-5--------|
-------------------------------------------3-3-3-3-3-3-3-3-3-3-3-3---------|

---------------------------------------------------------------------------|
---------------------------------------------------------------------------|
---------------------------------------------------------------------------|
--10-10-10-10-10-10-10-10--9-9-9-9--7-7-7-7--------------------------------|
--8--8--8--8--8--8--8--8--7-7-7-7--5-5-5-5--5-5-5-5-5-5-5-5-5-5-5-5--------|
-------------------------------------------3-3-3-3-3-3-3-3-3-3-3-3---------|

C              G

AHHHH, ELLA ES AZUL
C              G

AHHHH, ELLA ES AZUL
D                   G

AHHHH, EN SUS OJOS VACIO
D                    A...... (Paren Aqu



Close panel

Help Rate This Tab by Voting Up or Down

Vote Up Vote Down
Rating: -1 +1

Other Songs Like This

x

Copyright © 2018