Song: Chased Through The Woods

Band: Waking The Cadaver
Composed By: Brian Laidlaw, Joe Mailander, Justin Lansing

Rating: -0 +0 Views: 28

Artist: Waking the Cadaver
Song: Chased Through the Woods by a Rapist
Tuning: C G C F A D

. = palm mute
* = pinch harmonic



    

|---------------------------------------------------------------------|
|---------------------------------------------------------------------|
|---------------------------------------------------------------------|
|--0-0-0---------000-0-0-0-----------000-0-0-0-----------000-0-0-0----|
|--0-0-0---------000-0-0-0-----------000-0-0-0-----------000-0-0-0----|
|--0-0-0---------000-0-0-0-----------000-0-0-0-----------000-0-0-0----|
   . . .         ... . . .           ... . . .           ... . . .

|-------------------------------------------------------------------|
|-------------------------------------------------------------------|
|-------------------------------------------------------------------|
|-000---------------------------------------------------------------|
|-000---------------------------------------------------------------|
|-000---------------------------------------------------------------|
  ...




    

|-------------------------------------------------------------------|
|-------------------------------------------------------------------|
|-------------------------------------------------------------------|
|-------------------------------------------------------------------|
|-----4433333333333333333333-------443333333333333333---------------|
|-0011-----------------------0011---------------------4433----------|


|-------------------------------------------------------------------|
|-------------------------------------------------------------------|
|-------------------------------------------------------------------|
|-------------------------------------------------------------------|
|--------4433333333333333333333--------44333333333333
fde
3333-----------|
|-0011---------------------------0011--------------------4433-------|


|-----------------------------------------------------------|
|-----------------------------------------------------------|
|-----------------------------------------------------------|
|-0-0001-0--0001--------0-0001-0--0001-------0-0001-0--0001-|
|-0-0001-0--0001--------0-0001-0--0001-------0-0001-0--0001-|
|-0-0001-0--0001--------0-0001-0--0001-------0-0001-0--0001-|
. .... .  ....        . .... .  ....       . .... .  ....

|------------------------------------------------------------|
|------------------------------------------------------------|
|------------------------------------------------------------|
|-0-0001-0--0001---------------------------------------------|
|-0-0001-0--0001---------------------------------------------|
|-0-0001-0--0001---------------------------------------------|
  . .... .  ....


|---------------------------------------------------------------------------|
|---------------------------------------------------------------------------|
|---------------------------------------------------------------------------|
|---------------------------------------------------------------------------|
|-0---0000-----000000000--0000----000000000--0000----000000000--0000--------|
|-0---0000-----000000000--0000----000000000--0000----000000000--0000--------|
.   ....     .........  ....    .........  ....    .........  ....


|---------------------------------------------------------------------------|
|---------------------------------------------------------------------------|
|---------------------------------------------------------------------------|
|---------------------------------------------------------------------------|
|-----2211-----2211-----2211------2211-----2211-----2211-----2211-----2211--|
|1122------1122-----1122-----1122------1122-----1122----1122-----1122-------|


|---------------------------------------------------------------------------|
|---------------------------------------------------------------------------|
|---------------------------------------------------------------------------|
|---------------------------------------------------------------------------|
|-0--1--3--3*-0-4-3-2-0-4-3-2-----0--1--3--3*-0-4-3-2-0-4-3-2---------------|
|-0--1--3-----0-4-3-2-0-4-3-2-----0--1--3-----0-4-3-2-0-4-3-2---------------|

|---------------------------------------------------------------------------|
|---------------------------------------------------------------------------|
|---------------------------------------------------------------------------|
|---------------------------------------------------------------------------|
|-0--1--3--3*-0-4-3-2-0-4-3-2-----0--1--3--3*-0-4-3-2-0-4-3-2---------------|
|-0--1--3-----0-4-3-2-0-4-3-2-----0--1--3-----0-4-3-2-0-4-3-2---------------|

Slow down a lot here

|---------------------------------------------------------------------------|
|---------------------------------------------------------------------------|
|---------------------------------------------------------------------------|
|---------------------------------------------------------------------------|
|-0--1--3--3*-0-4-3-2-0-4-3-2-----0--1--3--3*-0-4-3-2-0-4-3-2---------------|
|-0--1--3-----0-4-3-2-0-4-3-2-----0--1--3-----0-4-3-2-0-4-3-2---------------|

|----------------------------------------------------------------------------|
|----------------------------------------------------------------------------|
|----------------------------------------------------------------------------|
|----------------------------------------------------------------------------|
|-0--1--3--3*-0-4-3-2-0-4-3-2-----0--1--3--3*-0-4-3-2-0-4-3-2----------------|
|-0--1--3-----0-4-3-2-0-4-3-2-----0--1--3-----0-4-3-2-0-4-3-2---3*-----------|

View Albums that This Song Appears On...

  • Perverse Recollections Of A Necromangler

    Genre: Pop/Rock Label: Necroharmonic Song Duration on Album: 1:51 Album Duration: 26:30

    Release Date: November 21, 2007

  • Straight Outta tha Ground, Vol. 1

    Label: In Tha Ground Song Duration on Album: 2:07

Close panel

Help Rate This Tab by Voting Up or Down

Vote Up Vote Down
Rating: -0 +0

Other Songs Like This

x

Copyright © 2017