Song: Dancing On Nails Bass

Band: We Are Harlot
Composed By: Harry Warren, Johnny Mercer

Rating: -0 +0 Views: 23

-------------------------------------------------------------------------------
                       DANCING ON NAILS - We Are Harlot
-------------------------------------------------------------------------------
Tabbed by: Jamesymad
E-mail: james.maddern1105@gmail.com

Tuning: E A D G



    

Intro Part I:

G|---------------------------------------------------------------------------|
D|------0----0-----0-----0-----0---------------------------------------------|  3x
A|--3/5--5-5---5-5---5-5---5-5---5-------------------------------------------|
E|---------------------------------------------------------------------------|




    

Intro Part II:

G|---------------------------------------------------------------------------|
D|---------------------------------------------------------------------------|  3x 
A|--3/5-55555555555-3-3------------------------------------------------------|
E|---------------------------------------------------------------------------|

Fourth Time

G|---------------------------------------------------------------------------|
D|---------------------------------------------------------------------------|
A|--3/5-5555555--------------------------------------------------------------|
E|---------------------------------------------------------------------------|

Verse:

G|---------------------------------------------------------------------------|
D|---------------------------------------------------------------------------|   8x
A|--555----------------------------------------------------------------------|
E|------xx-6-xx-5-xx-8--xx-6b------------------------------------------------|

Pre-Chorus:

G|---------------------------------------------------------------------------|
D|---------------------------------------------------------------------------|
A|---------------------------------------------------------------------------|
E|--5-5-5-5-5-5-5-5----------------------------------------------------------|

Chorus:

Same as Intro Part II

Second Chorus:

After the first Chorus is played, this comes in...

G|---------------------------------------------------------------------------|
D|---------------------------------------------------------------------------|   4x
A|--5/7-77777777777-5-5------------------------------------------------------|
E|---------------------------------------------------------------------------|


G|---------------------------------------------------------------------------|
D|---------------------------------------------------------------------------|
A|--5/6-66-5555---------------------5/6-66-5555------------------------------|
E|---------------8-8--6/8--6/8-\6----------------8-8--6-3--------------------|

Play intro line in solo



************************************

| /   slide up
| \   slide down
| h   hammer-on
| p   pull-off
| ~   vibrato
| +   harmonic
| x   Mute note
| b   Bend
| pb  Pre-bend
| br  Bend release
| pbr Pre-bend release
| brb Bend release bend

************************************

View Albums that This Song Appears On...

  • Roadrunner Road Crew: Spring Sampler 2015

    Label: Roadrunner Records Song Duration on Album: 2:40

  • We Are Harlot

    Label: Roadrunner Records Song Duration on Album: 2:40

    Moods: Celebratory, Confident, Raucous, Rowdy, Aggressive, Brash, Energetic, Rambunctious, Rebellious, Rousing, Slick, Boisterous, Freewheeling, Fun, Refined, Earnest

    Styles: Hard Rock, Heavy Metal, Pop-Metal

    Themes: Girls Night Out, Hanging Out, New Love, Partying, Playful, TGIF, Motivation, Road Trip, Sex

Close panel

Help Rate This Tab by Voting Up or Down

Vote Up Vote Down
Rating: -0 +0

Other Songs Like This

x

Copyright © 2017