Song: Winter Kiss

Band: Young Guns
Composed By: Rebecca Lowry

Rating: -1 +1 Views: 77



    

																				

                                                    Young Guns - Winter Kiss
                                                    =========================



    

   Hey guys, I heard some people wanted this song tabbed out so i decided to give 
it a try, it's all done by ear and it's my first tab so any tips are welcome, thanks a bunch :)





Verse

|--------------------------------------------------------|
|--------------------------------------------------------|
|-xx-5555-5555--4444--7777-------------------------------|
|-xx-5555-5555--4444--7777--6666--6666---3-33--5-55-6----| x2
|-xx-3333-3333--2222--5555--6666--6666---3-33--5-55-6----|
|---------------------------6666--6666---3-33--5-55-6----|


Chorus
|---------------------------------------------------------------------|  
|----------------
feb
-----------------------------------------------------| 
|--55-55--------------------------------------------------------------|
|--55-55\55-5--66-6-9-99-99-----------33-33-3-33-33-3\-55-55-5-66-66-6| x2
|--33-33\55-5--66-6-9-99-99-----------33-33-3-33-33-3\-55-55-5-66-66-6|
|-------\55-5--66-6-9-99-99-4444/7777-33-33-3-33-33-3\-55-55-5-66-66-6|

The Last time round, at the last bit play 2

View Albums that This Song Appears On...

  • All Our Kings Are Dead

    Label: Live Forever Song Duration on Album: 4:35

    Release Date: July 12, 2010

    Styles: Alternative Pop/Rock, Alternative/Indie Rock, Hard Rock

  • Bones

    Genre: Pop/Rock Album Duration: 40:33

    Release Date: January 9, 2012

    Moods: Rousing, Cathartic, Dramatic, Energetic, Fiery, Intense, Rebellious, Tense/Anxious, Aggressive, Confrontational, Harsh, Hostile, Poignant, Urgent, Ambitious, Bittersweet, Bright, Earnest, Passionate, Searching, Raucous, Slick, Volatile, Freewheeling

    Styles: Alternative/Indie Rock, Heavy Metal, Hard Rock, Post-Grunge

    Themes: Breakup, Jealousy, Regret, Guys Night Out

Close panel

Help Rate This Tab by Voting Up or Down

Vote Up Vote Down
Rating: -1 +1

Other Songs Like This

x

Copyright © 2019