Song: Seven Nation Army

Band: Zella Day

Rating: -0 +0 Views: 161

-------------------------------------------------------------------------------
                        SEVEN NATION ARMY - Zella Day
-------------------------------------------------------------------------------
Tabbed by: Nick
E-mail: N/A

Tuning: Standard, Capo on 2nd fret



    

Key: F#m
Tempo: 105 BPM

f#|--------|--------|--------|--------|    \
C#|------0-|--------|------0-|--------|     |
A |--------|--0-----|--------|--0-----|     |.  x2
E |2-------|--------|2-------|--------|     |
B |--------|--------|--------|--------|     |
F#|0---0---|0---0---|0---0---|0---0---|    /

f#|--------|--0-----|3-----0-|--------|
C#|--------|--------|--------|----3---|
A |------0-|--------|--------|--------|
E |----2---|----2---|----2---|2---0---|
B |--------|--------|--------|--------|
F#|0---0---|0---0---|0---0---|0---0---|



    

f#|--------|--0-----|--------|--------|
C#|1-------|--------|0-------|--------|
A |------0-|--------|--------|--------|
E |----2---|----2---|----0---|----0---|
B |2-------|--------|2-------|2-------|
F#|0---0---|0---0---|0---0---|0---0---|

Close panel

Help Rate This Tab by Voting Up or Down

Vote Up Vote Down
Rating: -0 +0

Other Songs Like This

x

Copyright © 2017